Izvajalci:   A B C Č D E F G H I J K L M N O P Q R S Š T U V W X Y Z Ž
----------------------------------------------------------------------------
			     A letter to Elise - Blink 182
----------------------------------------------------------------------------
Tabbed by:eRicK
Email:platinumslice@msn.com
IM: platinumslice

This song is a cover song Blink did at the Mtv Icon: The Cure. Mark did great
with the singging and Tom did a gnarly job with guitar and Travis was also great.
It sounds really rad and its very fun to play. I haven't seen any tabs for this song 
yet so here you go.............

/ = slide

* = just my own comments on the effects in each riff

5
x = mute the "x"
3

Tuning:EADGBe


Intro: *(lots of flanger and distortion with 50% reverb)*
e|-------------------------------------------------------------------------|
B|-------------------------------------------------------------------------|
G|-------------------------------------------------------------------------|
D|-11/14-14-14-14-11-11-9-9-9-11-11-7-7-7---(x3)---------------------------|
A|-------------------------------------------------------------------------|
E|-------------------------------------------------------------------------|
                                                     ^^
End that /\ fourth time with this \/                 ^^ 
e|---------------------------------------------------^^--------------------|
B|---------------------------------------------------^^--------------------|
G|---------------------------------------------------^^--------------------|
D|-12-12-12-12-12-12-12-12------(x1)------
A|-0--0--0--0--0--0--0--0--------------------------------------------------|
E|-------------------------------------------------------------------------|

Verse: *(lots of flanger and a little distortion with 25% reverb)*
e|-------------------------------------------------------------------------|
B|-------------------------------------------------------------------------|
G|------------------------------9-9-9-9------------------------------------|
D|--11-11-11-11-9-9-9-9-7-7-7-7-7-7-7-7----(x2)----------------------------|
A|------------------------------0-0-0-0------------------------------------|
E|-------------------------------------------------------------------------|

Intro: *(lots of flanger and distortion with 50% reverb)*
e|-------------------------------------------------------------------------|
B|-------------------------------------------------------------------------|
G|-------------------------------------------------------------------------|
D|-11/14-14-14-14-11-11-9-9-9-11-11-7-7-7---(x3)---------------------------|
A|-------------------------------------------------------------------------|
E|-------------------------------------------------------------------------|
                                                     ^^
End that /\ fourth time with this \/                 ^^ 
e|---------------------------------------------------^^--------------------|
B|---------------------------------------------------^^--------------------|
G|---------------------------------------------------^^--------------------|
D|-12-12-12-12-12-12-12-12------(x1)------
A|-0--0--0--0--0--0--0--0--------------------------------------------------|
E|-------------------------------------------------------------------------|

Verse: *(lots of flanger and a little distortion with 25% reverb)*
e|-------------------------------------------------------------------------|
B|-------------------------------------------------------------------------|
G|------------------------------9-9-9-9------------------------------------|
D|--11-11-11-11-9-9-9-9-7-7-7-7-7-7-7-7----(x2)-----(play all of verse x4)-|
A|------------------------------0-0-0-0------------------------------------|
E|-------------------------------------------------------------------------|

Chorus I: *(lots of distortion with 25% reverb and a little bit of fanger)*
e|-------------------------------------------------------------------------|
B|-------------------------------------------------------------------------|
G|--99999999--6666---------------------------------------------------------|
D|--77777777--xxxx-7777--------(x3)----------------------------------------|
A|--77777777--4444-xxxx----------------------------------------------------|
E|-----------------5555----------------------------------------------------|

Chorus II: *(lots of distortion with 25% reverb and a little bit of fanger)*
e|-------------------------------------------------------------------------|
B|-------------------------------------------------------------------------|
G|--------------------------------66666666---------------------------------|
D|--55555555--44444444--55555555--xxxxxxxx---------------------------------|
A|--xxxxxxxx--xxxxxxxx--xxxxxxxx--44444444---------------------------------|
E|--33333333--22222222--33333333-------------------------------------------|

e|-------------------------------------------------------------------------|
B|-------------------------------------------------------------------------|
G|------------666666666------------6666------------------------------------|
D|--55555555--xxxxxxxxx--55555555--xxxx--9999------------------------------|
A|--xxxxxxxx--444444444--55555555--4444--xxxx------------------------------|
E|--33333333-------------33333333--------7777------------------------------|

Break I: *(lots of distortion with 25% reverb and a little bit of fanger)*
e|-------------------------------------------------------------------------|
B|--10-----10-12-----------------------------------------------------------|
G|-----9---------9---------------------------------------------------------|
D|-------7---------7-----------(x2)----------------------------------------|
A|-------0---------0-------------------------------------------------------|
E|-------------------------------------------------------------------------|

Break II: *(lots of distortion with 25% reverb and a little bit of fanger)*
e|---------------------------------------------------------------------------|
B|-------------------------------------------------------------------------|
G|----------------------99999999--6666--4444-------------------------------|
D|--77777777--99999999--xxxxxxxx--xxxx--xxxx-------------------------------|
A|--xxxxxxxx--xxxxxxxx--77777777--4444--2222-------------------------------|
E|--55555555--77777777-----------------------------------------------------|


Intro: *(Clean with a little bit of flanger and 25% reverb)*
e|-------------------------------------------------------------------------|
B|-------------------------------------------------------------------------|
G|-------------------------------------------------------------------------|
D|-11/14-14-14-14-11-11-9-9-9-11-11-7-7-7---(x3)---------------------------|
A|-------------------------------------------------------------------------|
E|-------------------------------------------------------------------------|
                                                     ^^
End that /\ fourth time with this \/                 ^^ 
e|---------------------------------------------------^^--------------------|
B|---------------------------------------------------^^--------------------|
G|---------------------------------------------------^^--------------------|
D|-12-12-12-12-12-12-12-12------(x1)------
A|-0--0--0--0--0--0--0--0--------------------------------------------------|
E|-------------------------------------------------------------------------|

Outro: *(lots of distortion with 25% reverb and a little bit of fanger)*
e|-------------------------------------------------------------------------|
B|-------------------------------------------------------------------------|
G|------------99999999--55555555--77777777---------------------------------|
D|--77777777--99999999--77777777--77777777---------------------------------|
A|--77777777--77777777--44444444--55555555---------------------------------|
E|--55555555---------------------------------------------------------------|
                                                             ^^  
e|-----------------------------------------------------------^^------------|
B|-----------------------------------------------------------^^------------|
G|--------------------------------77777777-------------------^^------------|
D|--77777777--55555555--44444444--77777777----
A|--77777777--77777777--44444444--55555555---------------------------------|
E|--55555555--44444444--22222222-------------------------------------------|

Well thats it. it took lots of hard work but i think i got it.
if you have any comments or corrections just IM me or e-mail me.
Later Much Duders
-eRick

============================================================================


Blink 182 - A Letter To Elise tab - indeksirano na Ultimate-Guitar.com.
Uporabniki, ki so igrali Blink 182 - A Letter To Elise tab, so igrali tudi sledeče pesmi od Blink 182:
All The Small Things, I Miss You v3, Track 15 tab, I Miss You tab, Fuck A Dog tab,
Violence
Pesem A Letter To Elise tab lahko najdete tudi na YourChords.com, kjer vas čakajo tudi številne druge pesmi z akordi in tablaturami izvajalca Blink 182 - Blink 182 Chords and Tabs.

Namig:

Če se vam niti ne sanja, kako prijeti akord "Absus4" in podobne eksote, se z miško zapeljite nad akord in prikazal se vam bo diagram akorda.

Pokažite svoj talent!

Tu lahko objavite vaš video ali audio posnetek! Hočem vedeti več ...
Kje lahko najdemo vaš nastop? Hočem vedeti več ...
Vaš komentar:
Prosimo, prijavite se in objavite vaš nastop.