Izvajalci:   A B C Č D E F G H I J K L M N O P Q R S Š T U V W X Y Z Ž
Band- Slayer
Song- Addict

Tuning Db


 RIFF 1 INTRO x4

|KING CLEAN WITH CHORUS, TREMOLO AND A LITTLE FLANGER EFFECTS
|---------------------------------------------------|
|---------------------------------------------------|
|---------------------------------------------------|
|---------------------------------------------------|
|---------3---------3-2-------------------1-0-------|
|-0---2-3-------2-3---------2-3-5-----2-3-----3-----|




 RIFF 2 INTRO x3

|-------------------------------------------------|
|-------------------------------------------------|
|-------------------------------------------------|
|-------------------------------------------------|
|-------3-------3-5-------2-3---------3---5---6---|
|-0-0-0-1---0---1-3---0---0-1---0-0---1---3---4---|
  . . .     .         .         . .



 RIFF 3A INTO VERSE

|-----------------------------------------------------------------|
|-----------------------------------------------------------------|
|-----------------------------------------------------------------|
|-----------------------------------------------------------------|
|-2-3-2---2-3-2---2-3-2---2-3-2---2-3-2---2-3-2---2-3-2---5---3---|
|-0-1-0---0-1-0---0-1-0---0-1-0---0-1-0---0-1-0---0-1-0---3---1---|
  . . .   . . .   . . .   . . .   . . .   . . .   . .


|KING
|-----------------------------------------------------------------|
|-----------------------------------------------------------------|
|-----------------------------------------------------------------|
|-----------------------------------------------------------------|
|-2-3-2---2-3-2---2-3-2---2-3-2---2-3-2---2-3-2---2-3-x\\-5---3---|
|-0-1-0---0-1-0---0-1-0---0-1-0---0-1-0---0-1-0---0-1-----3---1---|
| . . .   . . .   . . .   . . .   . . .   . . .   . .
|
|HANNEMAN
|-----------------------------------------------------------------|
|-----------------------------------------------------------------|
|-----------------------------------------------------------------|
|-----------------------------------------------------------------|
|-2-3-2---2-3-2---2-3-2---2-3-2---2-3-2---2-3-2---2-3-2---5---3---|
|-0-1-0---0-1-0---0-1-0---0-1-0---0-1-0---0-1-0---0-1-0---3---1---|
  . . .   . . .   . . .   . . .   . . .   . . .   . .



 RIFF 3 VERSE x2

|-----------------------------------------------------------------|
|-----------------------------------------------------------------|
|-----------------------------------------------------------------|
|-----------------------------------------------------------------|
|-2-3-2---2-3-2---2-3-2---2-3-2---2-3-2---2-3-2---2-3-2---5---3---|
|-0-1-0---0-1-0---0-1-0---0-1-0---0-1-0---0-1-0---0-1-0---3---1---|
  . . .   . . .   . . .   . . .   . . .   . . .   . .





 RIFF 4 BRIDGE x3

|---------------------------------|
|---------------------------------|
|---------------------------------|
|---------4-44444-5-55555-8-88888-|
|-2-22222-2-22222-3-33333-6-66666-|
|-0-00000-------------------------|




 RIFF 5 CHORUS x3

|---------------------------------|
|---------------------------------|
|---------------------------------|
|---------------------------------|
|-8-------5-------3---------------|
|-6666666-3333333-1111111-000-000-|
  ....... ....... ....... ... ...



 RIFF 1A BREAK x1

|KING CLEAN WITH CHORUS, TREMOLO AND A LITTLE FLANGER EFFECTS
|---------------------------------------------------|
|---------------------------------------------------|
|---------------------------------------------------|
|---------------------------------------------------|
|---------3---------3-2-------------------1-0-------|
|-0---2-3-------2-3---------2-3-5-----2-3-----3-----|
|
|
|HANNEMAN
|---------------------------------------------------|
|---------------------------------------------------|
|---------------------------------------------------|
|---------------------------------------------------|
|-2-----------------------------------x\\\\\\\\\\\\-|
|-0-------------------------------------------------|




 RIFF 3 VERSE x4

 RIFF 4 BRIDGE x3

 RIFF 5 CHORUS x3


 FILL 1

|-----|
|-----|
|-----|
|-----|
|-2---|
|-0---|
  .



 RIFF 6 INTERLUDE x1

|-------------------|-------------------|
|-------------------|-------------------|
|-------------------|-------------------|
|-------------------|-------------------|
|-3-6-4-3-4-3-6-4---|-3-6-4-3-4-3-6-7---|
|-3-6-4-3-4-3-6-4---|-3-6-4-3-4-3-6-7---|
  . . . . . . . .     . . . . . . . .


|-------------------|-------------------|
|-------------------|-------------------|
|-------------------|-------------------|
|-------------------|-------------------|
|-3-6-4-3-4-3-4-6---|-3-6-4-3-4-6-7-3---|
|-3-6-4-3-4-3-4-6---|-3-6-4-3-4-6-7-3---|
  . . . . . . . .     . . . . . . . .



 SOLO KING
  WAH WAH & BAR///////////// WAH___        WAH_______
|---------------------------------------------------------------------|
|-------------------------------------------------------------6-5b^^--|
|-//6-4p3p0h4p3p0h4p3p0h4p3p0h4p3p0h4p3p0-4h6-4b^^^^----3-4-6---------|
|---------------------------------------------------------------------|
|---------------------------------------------------------------------|
|---------------------------------------------------------------------|

  WAH____________________  WAH__________    WAH_____________________________
|----------------------------------------------------18-19-21-19-18----------|
|-13-12-13-12-13-12-13-12///20202020-18b^^--18-20-21----------------21-20-18-|
|----------------------------------------------------------------------------|
|----------------------------------------------------------------------------|
|----------------------------------------------------------------------------|
|----------------------------------------------------------------------------|

  WAH______ WAH______ WAH        WAH______ WAH______ WAH_________________
|-------------------------------------------------------------------------|
|-16b161616-16b161616-16b\\\\----16b161616-16b161616-16161717181819192020-|
|-16b161616-16b161616-16b\\\\----16b161616-16b161616-16161717181819192020-|
|-------------------------------------------------------------------------|
|-------------------------------------------------------------------------|
|-------------------------------------------------------------------------|

  WAH_____________ WAH & BAR N.H. BAR
|-----------------------------------------|
|-2121222223232424------------------------|
|-2121222223232424-0\\\\\\\\h5\\\\\\\\----|
|-----------------------------------------|
|-----------------------------------------|
|-----------------------------------------|




 RIFF 7 x3 UNDER SOLO

|---------------------------------|---------------------------------|
|---------------------------------|---------------------------------|
|---------------------------------|---------------------------------|
|---------------------------------|---------------------------------|
|---------------------------------|-------------------------5---6---|
|-3-4-3-1-3-4-3-1-3-4-3-1-3-4-3-1-|-3-4-3-1-3-4-3-1-3-4-3-1-3---4---|
  . . . . . . . . . . . . . . . .   . . . . . . . . . . . .



 RIFF 3 VERSE x2


 RIFF 7A BRIDGE x2

|---------------------------------|---------------------------------|
|---------------------------------|---------------------------------|
|---------------------------------|---------------------------------|
|---------------------------------|---------------------------------|
|---------------------------------|---------------------------------|
|-3-4-3-1-3-4-3-1-3-4-3-1-3-4-3-1-|-3-4-3-1-3-4-3-1-3-4-3-1-3-4-3-1-|
  . . . . . . . . . . . . . . . .   . . . . . . . . . . . . . . . .



 RIFF 5 CHORUS x3


 RIFF 4A OUTRO x10

|---------------------------------|
|---------------------------------|
|---------------------------------|
|---------4-4-4-4-5-5-5-5-8-8-8-8-|
|-2-2-2-2-2-2-2-2-3-3-3-3-6-6-6-6-|
|-0-0-0-0-------------------------|




 RIFF 4 OUTRO x4


Slayer - Addict tab - indeksirano na Ultimate-Guitar.com.
Uporabniki, ki so igrali Slayer - Addict tab, so igrali tudi sledeče pesmi od Slayer:
In A Gadda Da Vida tab, Bloodline tab, Postmortem tab, Sex Murder Art tab, God Send Death tab,
Expendable Youth tab
Pesem Addict tab lahko najdete tudi na YourChords.com, kjer vas čakajo tudi številne druge pesmi z akordi in tablaturami izvajalca Slayer - Slayer Chords and Tabs.

Namig:

Po registraciji (ki vam bo vzela le 10 sekund, se spomnite?) boste lahk uporabljai vaš kotiček - čisto vaš delček portala www.Akordi.eu z vašimi pesmaricami itd.

Pokažite svoj talent!

Tu lahko objavite vaš video ali audio posnetek! Hočem vedeti več ...
Kje lahko najdemo vaš nastop? Hočem vedeti več ...
Vaš komentar:
Prosimo, prijavite se in objavite vaš nastop.