Izvajalci:   A B C Č D E F G H I J K L M N O P Q R S Š T U V W X Y Z Ž
Trenutna ocena: 0
Oceni akorde:
1  2  3  4  5
Transponiraj pesem:
================================================================================================
www.trzalica.com    www.trzalica.com    www.trzalica.com    www.trzalica.com    www.trzalica.com
================================================================================================
	#======================== !!! N E   P R E Z R I !!! ===========================#
	#     Transkripcija je delo njenega avtorja in predstavlja njegovo lastno      #
	# interpretacijo skladbe. Njen namen ni kršenje avtorskih pravic, temveč pomoč #
	# drugim glasbenikom pri učenju in izpopolnjevanju kitarske tehnike ter znanja.#
	# Uporaba gradiva na portalu Trzalica.com je dovoljena le za osebno uporabo in #
	#  le ob pogoju, da si lastite originalen izdelek danega glasbenega izvajalca. #
	#       Portal Trzalica.COM ne odgovorja za nespoštovanje teh pravil.          #
	#==============================================================================#
	#                                                                              #
	#                    w w w . t r z a l i c a . c o m                           #
	#               K j e r   i m a m o   r a d i   g l a s b o                    #
	#                                                                              #
	#==============================================================================#
		   ___________________________________________________________
		  |  _______________________________________________________  |
		  | | 							    | |
		  | | IZVAJALEC: .............. Big Foot Mama		    | |
		  | | PESEM: .................. Vrn se k men		    | |
		  | | ALBUM: .................. 5ing 			    | |
		  | |_______________________________________________________| |
		  |___________________________________________________________|

================================================================================================
intro:
   F#m       D     A
e|-------2--------------
b|-------2---3-2-3-2----
g|-----2-----2-2-2-2----  2x
d|---4-------0-0-0-2----
a|----------------------
e|-2--------------------

e|---------------------------------------------------------------------------
b|---------------------------------------------------------------------------
g|-------------7-6-7----------------7-6-7----------------7-6-7----6----------
d|--4---4---4--7-7-7-7---4---4---4--7-7-7-7---4---4---4--7-7-7-7--6-----4----
a|--4---4---4--5-5-5-7---4---4---4--5-5-5-7---4---4---4--5-5-5-7--4-----4----
e|--2-0-2-0-2--------5---2-0-2-0-2--------5---2-0-2-0-2--------5--------2----


verz:

F#m           D       A        F#m  D A
Zame si bla klas na oblišju boga
Edin'ga, ki jemlje, edin'ga, ki da
Jaz pa sem bil tvoj dušni   pastir
Kovač    idealov     za v okvir


prehod v refren:

Znal sem ti polizat prah iz oši
S cvetjem posipat vlašne dlani
Ampak sadeš z drevesa vzel sem si sam
No, zdej pa mam!

e|---------------------------------------------------------------------------
b|---------------------------------------------------------------------------
g|-------------7-6-7----------------7-6-7----------------7-6-7----6----------
d|--4---4---4--7-7-7-7---4---4---4--7-7-7-7---4---4---4--7-7-7-7--6-----2----
a|--4---4---4--5-5-5-7---4---4---4--5-5-5-7---4---4---4--5-5-5-7--4-----2----
e|--2-0-2-0-2--------5---2-0-2-0-2--------5---2-0-2-0-2--------5--------0----


refren:

A                                   F#m
DEJ, VRN' SE K MEN' NEJ TI NE BO VSEEN'
D                         A       E
KER BI ŠE KDAJ OBLEKU TVOJO SRAJCO IN BIL POTEŠEN
A                                   F#m
DEJ, VRN' SE K MEN' NEJ TI NE BO VSEEN'
D                      A         E
DAM BOM S TABO SPET ISKAL SVETLOBO NA NOV' PREROJEN
               F#m
DEJ VRN' SE K MEN'

prehod v verz:

e|----------------------------------------------------
b|----------------------------------------------------   f = bend za cel ton
g|------------------------9---------------------------   r = release bend
d|---7--9f-r-7----7-9-/11------7h9p7--7---9f----------   / = slide up
a|--------------9-------------------------------------   h = hammer on
e|----------------------------------------------------   p = pull off


verz:

F#m              D       A        F#m  D A
vzel sem ti zvestobo, zamenju za greh
darila in    naslado   iskal v smeteh
neki me je    gnal po  tujih poteh


prehod v refren:

vrag me je napelu, da se igram
mislu sem, da v temo grem lahko samo
ujet v iluzijah, da se poznam
no, zdej pa mam!

e|---------------------------------------------------------------------------
b|---------------------------------------------------------------------------
g|-------------7-6-7----------------7-6-7----------------7-6-7----6----------
d|--4---4---4--7-7-7-7---4---4---4--7-7-7-7---4---4---4--7-7-7-7--6-----2----
a|--4---4---4--5-5-5-7---4---4---4--5-5-5-7---4---4---4--5-5-5-7--4-----2----
e|--2-0-2-0-2--------5---2-0-2-0-2--------5---2-0-2-0-2--------5--------0----


refren:

A                                   F#m
DEJ, VRN' SE K MEN' NEJ TI NE BO VSEEN'
D                         A       E
KER BI ŠE KDAJ OBLEKU TVOJO SRAJCO IN BIL POTEŠEN
A                                   F#m
DEJ, VRN' SE K MEN' NEJ TI NE BO VSEEN'
D                      A         E
DAM BOM S TABO SPET ISKAL SVETLOBO NA NOV' PREROJEN
               C#  D   C#   D    C#   D    C#   D
DEJ VRN' SE K MEN'


bridge:
   C#       D
e|---------------------
b|-14-------15---------  4x
g|-13-------14---------
d|---------------------  strumaj dol-gor....
a|-11-------12---------  z wah-wahom
e|---------------------


refren:

A                                   F#m
DEJ, VRN' SE K MEN' NEJ TI NE BO VSEEN'
D                         A       E
KER BI ŠE KDAJ OBLEKU TVOJO SRAJCO IN BIL POTEŠEN
A                                   F#m
DEJ, VRN' SE K MEN' NEJ TI NE BO VSEEN'
D                      A         E
DAM BOM S TABO SPET ISKAL SVETLOBO NA NOV' PREROJEN
  
zaključek:
   
DEJ VRN' SE K MEN'

e|---------------------------------------------------------
b|---------------------------------------------------------
g|-------------7-6-7----------------7-6-7------------------
d|--4---4---4--7-7-7-7---4---4---4--7-7-7-7---4---4---4----
a|--4---4---4--5-5-5-7---4---4---4--5-5-5-7---4---4---4----
e|--2-0-2-0-2--------5---2-0-2-0-2--------5---2-0-2-0-2----


Big Foot Mama - Vrn se k men - indeksirano na Trzalica.com.
Uporabniki, ki so igrali Big Foot Mama - Vrn se k men, so igrali tudi sledeče pesmi od Big Foot Mama:
Nisem več s tabo v1, Led s Severa v2, Led s severa v1, Črn tulipan v2, Neki sladkega,
Oklep v2
Ogromno število pesmi z akordi in tablaturami izvajalca Big Foot Mama najdete tudi na spletni strani YourChords.com pod Big Foot Mama Chords and Tabs.

Namig:

Preizkusite AutoScroller ... Tako se lahko povsem posvetite preigravanju kitare, medtem ko se bo besedilo z akordi avtomatsko pomikalo po ekranu. S pomočjo miške oziroma tipkovnice (tipke 0, 1, 2 in 3) lahko izbirate med različnimi hitrostmi premikanja besedila.

Pokažite svoj talent!

Tu lahko objavite vaš video ali audio posnetek! Hočem vedeti več ...
Kje lahko najdemo vaš nastop? Hočem vedeti več ...
Vaš komentar:
Prosimo, prijavite se in objavite vaš nastop.