Izvajalci:   A B C Č D E F G H I J K L M N O P Q R S Š T U V W X Y Z Ž
Trenutna ocena: 0
Oceni akorde:
1  2  3  4  5
Transponiraj pesem:
O.6 o -.Coi

                           

ep 1

e_intr /

e_omtm      

eisn


; atA1

   q  q  q  q  q  e  s .s 
 -----3-----2--------0-----|
 --0-----0-----2--------0--|
 --------0-----3--------2--|
 --------2-----2-----------|
 -----------------2--------|
 -----0-----2--------------|


   s  e  q  q  q  q  q  e  s .s 
 --------0--0--------------------|
 --0--1--0-----1--4--------0-----|
 --2--2--0-----0-----2--------0--|
 --------2-----------4--------3--|
 --------------------------------|
 -----------3-----3-----3--------|


   s  e  q  q  q  e  e  e     q 
 --------------------------|-----|
 --------1--1--0-----0--1--|-----|
 --0--2--------2--0--------|--5--|
 --3--2--2-----1-----------|--4--|
 -----------2-----------0--|-----|
 --------2--------0--------|-----|


   e  e  e  e  e  e     e  e  e
 -----0--1--1--2--7--|--5--4--3-
 --3--------0--------|----------
 -----------0--------|----------
 --------------------|----------
 --------------------|----------
 -----------2--------|----------


   e  e  e  e  e  e 
 --2--1--0--0--------|
 --------------4--3--|
 --------------------|
 --------------------|
 --------------------|
 --------------------|


; atA2

   q     q     s  e  q  e  s .s 
 -----|-----|--------2-----0-----|
 --0--|--2--|--0--1--0--------0--|
 --0--|--3--|--2--2--2--------2--|
 --2--|--2--|--------1-----------|
 -----|-----|--------------------|
 -----|-----|-----------0--------|


   q     q     s  e  q  e  s .s 
 -----|-----|--------------------|
 --1--|-----|--------3-----0-----|
 --0--|--2--|--0--2--0--------0--|
 -----|--4--|--3--3--3--------2--|
 -----|-----|--------2--3--------|
 -----|-----|--------------------|


   q     e  e  e  q  q  e  e  e 
 -----|-----------2--0-----------|
 -----|--2--3--4-----2--------0--|
 --2--|--------------0-----2-----|
 --1--|-----------------0--------|
 -----|-----------0--------------|
 -----|--------------------------|

   q     s  t  e  e  e  e  e  
 -----|-----------------------|
 -----|--1--1-----------------|
 --0--|--------2--2--3-----0--|
 --3--|-----------------2--1--|
 -----|--------------------2--|
 -----|-----------------3-----|


   q 
 --0--|
 --0--|
 --0--|
 -----|
 -----|
 -----|


; atB1

ep 20

   e  e  e  e  e  e     e  e  e
 --8--5-----5--5-----|--5--2----
 --------0--------5--|--------0-
 --------------------|----------
 --------------------|----------
 -----------7--------|----------
 --------------------|----------


   e  e  e  e  e  e     e  e  e
 --3--0-----0--0-----|--2-------
 --------------------|-----0--0-
 --------0--------2--|----------
 --------------------|----------
 -----------0--------|----------
 --------------------|----------


   e  e  e  e  e  e 
 -----------------3--|
 -----0--0-----4-----|
 -----------3--------|
 --------------------|
 --2-----------------|
 -----------0--------|


   e  e  e  e  e  e     e  e  e
 --8--5-----5--5-----|--5--2----
 --------0--------5--|--------0-
 --------------------|----------
 --------------------|----------
 -----------7--------|----------
 --------------------|----------


   e  e  e  e  e  e     e  e  e
 --3--0--------------|--------1-
 -----------1--------|--0--3----
 --------0--------0--|----------
 --------------2-----|----------
 -----------0--------|----------
 --------------------|----------


   e  e  e  q  q
 --3--5--7--1----
 --------------0-
 ----------------
 ----------------
 ----------------
 -----------0----


; atB2


   e  e  e  e  e  e     e  e  e
 --8--5-----5--5-----|--5--2----
 --------0--------5--|--------0-
 --------------------|----------
 --------------------|----------
 -----------7--------|----------
 --------------------|----------


   e  e  e  e  e  e     e  e  e
 --3--0-----0--0-----|--2-------
 --------------------|-----0--0-
 --------0--------2--|----------
 --------------------|----------
 -----------0--------|----------
 --------------------|----------


   e  e  e  e  e  e 
 -----------------3--|
 -----0--0-----4-----|
 -----------3--------|
 --------------------|
 --2-----------------|
 -----------0--------|


   e  e  e  e  e  e     e  e  e
 --8--5-----5--5-----|--5--2----
 --------0--------5--|--------0-
 --------------------|----------
 --------------------|----------
 -----------7--------|----------
 --------------------|----------


   e  e  e  e  e  e     e  e  e
 --3--0--------------|--------1-
 -----------1--------|--0--3----
 --------0--------0--|----------
 --------------2-----|----------
 -----------0--------|----------
 --------------------|----------


   e  e  e  h
 --3--5--7--1-
 -------------
 -------------
 -------------
 -------------
 -----------0-


; atC1

ep 10

   q  q  q  q  q  q  q  q  q
 -----4-----4--2-----0-------
 --------0-----1--------4----
 --1-----1-----1--------1--1-
 --------2--------------2--3-
 ----------------------------
 -----0-----0-----0----------


   q     q     q     e  e  e
 -----|-----|--2--|-----2----
 -----|--2--|--4--|--5-----2-
 -----|--2--|--2--|----------
 -----|-----|-----|----------
 --4--|-----|-----|----------
 -----|-----|-----|----------


   q     q     q     q     q  e
 -----|--5--|--2-2|----2|--1--9-
 -----|--6--|--2--|-----|--8----
 -----|--4--|--2--|--1--|--9----
 --6--|-----|-----|--1--|-------
 -----|-----|-----|-----|-------
 -----|-----|-----|-----|-------


   q     q     s  t  e  e
 -19--|--6--|-----2-------
 --9--|-----|--0-----4--2-
 --9--|-----|-------------
 -----|-----|-------------
 -----|-----|-------------
 -----|-----|-------------


; atC2


   q     q     q    .s 3e 3e 3e
 -----|-----|-----|-------------
 -----|--0--|--2--|--2--------1-
 --1--|--1--|--1--|-----1--1----
 --2--|--2--|--2--|-------------
 -----|-----|-----|-------------
 -----|-----|-----|-------------


  3e 3q     q     q  s 3s  
 -----5--|-----|--2-------
 --------|--0--|--4--4--7-
 --3-----|--2--|--2-------
 --------|-----|----------
 --------|-----|----------
 --------|-----|----------


   e  e     q     q     q     q 
 --------|-----|--5--|--2--|----2|
 --4--2--|-----|--6--|--2--|--2--|
 --------|-----|--4--|--2--|--0--|
 --------|--6--|-----|-----|--2--|
 --------|-----|-----|-----|-----|
 -----2--|-----|-----|-----|-----|


   q     q     q     e  e  e
 --1--|--6--|--2--|--0--0----
 -1---|-----|-----|----------
 -2---|-----|-----|--------3-
 -1---|-----|-----|----------
 -----|-----|-----|----------
 -----|-----|-----|----------


; atB1

ep 20

   e  e  e  e  e  e     e  e  e
 --8--5-----5--5-----|--5--2----
 --------0--------5--|--------0-
 --------------------|----------
 --------------------|----------
 -----------7--------|----------
 --------------------|----------


   e  e  e  e  e  e     e  e  e
 --3--0-----0--0-----|--2-------
 --------------------|-----0--0-
 --------0--------2--|----------
 --------------------|----------
 -----------0--------|----------
 --------------------|----------


   e  e  e  e  e  e 
 -----------------3--|
 -----0--0-----4-----|
 -----------3--------|
 --------------------|
 --2-----------------|
 -----------0--------|


   e  e  e  e  e  e     e  e  e
 --8--5-----5--5-----|--5--2----
 --------0--------5--|--------0-
 --------------------|----------
 --------------------|----------
 -----------7--------|----------
 --------------------|----------


   e  e  e  e  e  e     e  e  e
 --3--0--------------|--------1-
 -----------1--------|--0--3----
 --------0--------0--|----------
 --------------2-----|----------
 -----------0--------|----------
 --------------------|----------


   e  e  e  q  q
 --3--5--7--1----
 --------------0-
 ----------------
 ----------------
 ----------------
 -----------0----


; atB2


   e  e  e  e  e  e     e  e  e
 --8--5-----5--5-----|--5--2----
 --------0--------5--|--------0-
 --------------------|----------
 --------------------|----------
 -----------7--------|----------
 --------------------|----------


   e  e  e  e  e  e     e  e  e
 --3--0-----0--0-----|--2-------
 --------------------|-----0--0-
 --------0--------2--|----------
 --------------------|----------
 -----------0--------|----------
 --------------------|----------


   e  e  e  e  e  e 
 -----------------3--|
 -----0--0-----4-----|
 -----------3--------|
 --------------------|
 --2-----------------|
 -----------0--------|


   e  e  e  e  e  e     e  e  e
 --8--5-----5--5-----|--5--2----
 --------0--------5--|--------0-
 --------------------|----------
 --------------------|----------
 -----------7--------|----------
 --------------------|----------


   e  e  e  e  e  e     e  e  e
 --3--0--------------|--------1-
 -----------1--------|--0--3----
 --------0--------0--|----------
 --------------2-----|----------
 -----------0--------|----------
 --------------------|----------


   e  e  e  h
 --3--5--7--1-|
 -------------|
 -------------|
 -------------|
 -------------|
 -----------0-|


Frederic Francois Chopin - Op. 64 No. 2 - indeksirano na Trzalica.com.
Uporabniki, ki so igrali Frederic Francois Chopin - Op. 64 No. 2, so igrali tudi sledeče pesmi od Frederic Francois Chopin:
Grande Valse Brillante Opus 18, Preludio No. 20, Etude 1 Op 25, Mazurka Op 6 No 1,
Prelude No 7 in A Major, Theme from Etude Opus 10 No 3

Namig:

Če se vam niti ne sanja, kako prijeti akord "Absus4" in podobne eksote, se z miško zapeljite nad akord in prikazal se vam bo diagram akorda.

Pokažite svoj talent!

Tu lahko objavite vaš video ali audio posnetek! Hočem vedeti več ...
Kje lahko najdemo vaš nastop? Hočem vedeti več ...
Vaš komentar:
Prosimo, prijavite se in objavite vaš nastop.