Izvajalci:   A B C Č D E F G H I J K L M N O P Q R S Š T U V W X Y Z Ž
saiao oan eataaBca
zea:ai 3
rprcm avepsiirt akain iao



W 01Pet ilnSnt      

--6----------------------3------
-8-8-8------------------3-3-----
----7-7-7--------------3---5320-
-------8-8585-5-------5---------
-------------5-5-5---5----------
----------------6-636-----------

--------------------------------
--------------------------------
--------------------------------
--------------------------------
--------------------------------
--------------------------------

--------------------------------
--------------------------------
--------------------------------
-----------------------------06-
--------------------------------
--------------------------------

--------------------------------
--------------------------------
---------------------------071--
--------------------------------
--------------------------------
--------------------------------

----------------------------------
-----------------------------1--1-
------------281----------0--0--0--
-----8--------------1--1--1-------
-0--0-1---------2--2--2-----------
--1--------------1----------------

--------------------------------
-----11-1-----11-1-----11-1-----
---------------------1----------
--01-----1-21-----1-3-----------
--------------------------------
--------------------------------


--------------------------------
-----11-1-----------------------
--01----------21--------1-------
-----------01----31--1----------
---------1----------3--3--1-----
--------------------------------


--------------------------------
--------------------------------
--------------------------------
--------------------------------
--------------------------------
--------------------------------


--------------------------------
--------------------------------
--------------------------------
--------------------------------
--------------------------------
--------------------------------


--------------------------------
--------65----------------------
-----0----7646-7-9--------------
------75------7-7---------------
--------------------------------
--------------------------------


--------------------------------
--------------------------------
--------------------------------
--------------------------------
--------------------------------
--------------------------------

--------------------------------
--------------------------------
--------------------------------
--------------------------------
----------------------087-------
--------------------------------


-------------------------------|
---------0---------------------|
-------1-----------------------|
------2---1---1--2-------------|
---81-------2-1--9-------------|
--0----------------------------|




iiin rmvoi oosnt ,BV10


-------33200--|---------------
-------00---3-|---------------
---------200--|---------------
--0-----0---4-|---------------
-2-320-------3|---------------
3-----3-------|---------------


-----------------0|------------------
------3-101-----1-|------------------
-202-21--------2--|------------------
0424-4--202--04---|------------------
----3-20----0-----|------------------
----------32------|------------------


32------220---32|
0-------------0-|
-20-----220----2|
0--421-----20---|
------32-2---3--|
---------0------|


--20-032-23355320-------|
-4---------0------------|
-2-0-0-2-2---5----420-02|
---------------------4--|
2---2---2---------------|
------------------------|


-7-5-32-0---------2
--7----4-01--------
-----------2------2
----2-----2--20----
6---------0-3--320-
-------------------


-0-----------------------
4-010------------010-----
20----20-------------20--
---1-2-2421--124---------
2------0-2----------02---
-----------3-------------


-----------------|------------------
-----------------|------------------
-------00-------1|------------------
2------224------0|------------------
--20----26320----|------------------
03--320------320-|------------------

1
32------110------0|--------------------
23-310--001-------|--------------------
------20---------2|--------------------
--0--------------4|--------------------
------------320---|--------------------
-----------3---32-|--------------------

3
-05320-----3---1|
1-----31103-30-0|
--------------0-|
2------00------0|
0---------------|
-------23------3|

4
0-----------------------
-0----3-----1-----0-0---
--02---2-0---0----------
----40--4-2---240-------
3----------0-------3----
-----------------3------

5
----------0------------------0----|
0--------3-3310--13110--------31-0|
-2-20---22--1--21-----20-----00-2-|
0-4--420---------2--0---420------0|
--------32--2----0---------32323--|
------------0-------2----3-0------|

7
------0------0----|-------------------
--1-0--132322-320-|-------------------
20------00--3----2|-------------------
----0---02--2-----|-------------------
3----3--20--------|-------------------
---3--------------|-------------------

9
-------332------2|--|
-------00-------1|--|
0--------2-20----|--|
--0-----0-4--420-|--|
22-320-----------|--|
3-----3----------|--|


W 9 uu ueSieN  nC


----0|------------|-------------0|--------
-013-|------------|-------1--0---|--------
2----|------0--1--|---------2-0-0|--------
-----|-------320--|--------2---4-|--------
-----|------2---32|-------0------|--------
-----|------------|--------------|--------


-02357|------------|-------3--2--7|-------
---0--|------3104--|--------------|-------
0-2--0|---------20-|--------------|-------
2---4-|------4----4|-------2-2-0-0|-------
------|------5----2|--------2---3-|-------
------|------------|-------0------|-------


--10--5|---------3--1---|--------0----|
2-3310-|-----------1-0-0|-------113-10|
-2----5|--------4----02-|-------2-4-21|
-------|---------2020---|-----------02|
0-1-0--|----------------|-------0023--|
---3--0|---------------3|-------------|


------|--------------|------------01--|
-----3|----------3---|---------313----|
2-----|-------212----|----------------|
-20---|--------------|--------30------|
---320|------3--02---|-----------3-20-|
1--2--|------50---424|---------------3|


-310-023|------287532|-------3--356|------
----3--0|------3-----|--------56---|------
-----02-|------------|-------------|------
-2-3----|------0-----|-----------3-|------
3------2|---------6-2|-------------|------
--------|------------|-------0----3|------


--0135|-------------|----------7-0875310|
-3----|--------1-0-0|---------0---------|
------|-------0---20|-------------------|
3--0-3|------2---0--|----------646------|
5-----|------3------|-------------0-3-0-|
----0-|---------3---|---------0---------|


10----------|-------754--|------------|
--310-0-----|------------|------30--10|
-----2-20---|-------754--|--------21--|
0-3-0----320|------0---20|------3---20|
--------2---|------------|------------|
------3---3-|------------|------------|


0--10-|-----------010--------|----------24|
-31--3|----------3---3101310-|------1-----|
2--2--|---------------------2|------------|
---023|----------3-----------|----------02|
320---|----------------------|-------023--|
------|----------------1-----|------------|


5---78|------3104--|-------5---------|
--01--|------3--310|-------5-3101010-|
-2--79|------------|--------2---1---2|
3-----|---------2--|--------302------|
-----7|------2-----|-------3---------|
------|------------|------------0----|


-----|--------------------0-0|------------
--101|--------------------13-|------------
2----|-----------------------|------------
2----|------------20--0----3-|------------
3-0--|--------------3203200--|------------
50---|--------------0---0----|------------


--------3---|--------------55-32532|
0-----------|------------0--4------|
-20------032|-------------2-4------|
0--3320-----|---------------4--1-2-|
----3--3----|------------2-3-4-----|
--3-----0-1-|----------------------|


0-----7-5-3-|------------3-2-320-0---|
-3101------2|-------------5-5---4----|
--0--5-5-5--|---------------------0--|
4-----------|----------------------42|
----0-0-0-1-|------------3-3-4-2-1-2-|
------------|------------------------|


--0-0---|-------------------|--------
---4-0--|--------------2--10|--------
-2----20|----------21-1220--|--------
4-------|------------4----4-|--------
--2-----|----------0-2-0----|--------
----0---|-------------------|--------


-----------|------------------0|--------
0130101301-|----------32023-3--|--------
----------2|---------------2---|--------
0-2---2-0--|----------0-2-40-3-|--------
----0-----3|--------------5-31-|--------
----------5|-------------------|--------


------------|----------------------3-|
2---3-----3-|-----------------10-03-1|
--0--0---2-0|---------------2---2----|
23-23-323---|------------424-0-------|
--0-5-------|------------0-5---------|
0-----------|----------------3-------|


----------1-|------------5458-0----75|
0-03-10-03-1|----------------3-3136--|
02--0--2----|------------5-2-------0-|
--3-2-0-----|----------------3-------|
--------3-2-|------------------2-0---|
------------|------------------------|


3137-----053|------------------0-2-4-|
0---13101---|---------------0--------|
--0---------|------------1-1---------|
----2-----3-|------------04--2202-0-0|
------0-----|--------------2-----3-2-|
--------3---|----------------4-------|


5-7---------|----------------0-0-|--------
----1-----2-|----------------00--|--------
-----203-2-0|-------------0------|--------
-0-0----3-2-|---------------4----|--------
0---0-------|------------2-0---30|--------
--4---------|----------------3---|--------


-02--20-0--0|------------------0----3|
4--40--4-0--|------------0-0--0-310--|
----------2-|-------------2--------2-|
--------2---|---------------42-----2-|
2-0---------|------------5---3-----3-|
----3-3---2-|--------------3---------|


20-0-235|-------0--5-3-2|------------
--4-4457|------4--1-0---|------------
--------|------20-----2-|------------
----4---|---------------|------------
----2---|--------2------|------------
--------|---------------|------------


-0-0-2-2-2-4|------------1-3-1--1-1--|
2-2-1-1-1-0-|-------------3-2-30----3|
------------|--------------------2-0-|
----1-----0-|----------------0-0-----|
0-0-0-0-0-0-|------------2-0-----3-2-|
------------|------------------------|


-1-10--0-0--|------------------------|
1-0--1-----1|-------------3-31--1-1--|
------2-0---|------------2-1--2------|
----------3-|------------------3-2-03|
0---3-3-2-0-|----------------0-0-----|
--3---------|------------2-0-----3-1-|

                                   
-----457|----------1-0--|------------
-103----|------31-3-1-03|------------
2---1457|------12-------|------------
--0-----|---------------|------------
--------|---------------|------------
0---0---|--------0------|------------

    *     *
----4-----3-|----------------30-1-04-|
-----0-0-0-2|------------------3-1-03|
-2-2--------|-------------3-2--------|
4-4-3-3-3-2-|------------0-----------|
----5-----5-|--------------3-1-------|
------------|------------------------|


----5-5-|------------075450-5|------------
-1-055--|----------0-------3-|------------
--------|--------12-1--------|------------
2-0---30|--------2-0-----3---|------------
----3---|------------3-3---2-|------------
--------|--------------------|------------


0-0--05310--|-----------------0-----|
-3-0------31|--------------1----3-1-|
0---2-------|-----------212---------|
------------|---------------33030314|
--3---------|-----------2-3-5-------|
----1-------|-----------------------|


------1-0---|--------------545---|------
0---------3-|------------03----01|------
--2-11-1-1-2|-----------------2--|------
14142-2-2-3-|--------------------|------
------------|----------------0---|------
------------|--------------0-----|------


------|-------------|------------023|
------|---------1--0|-------0------0|
--0--1|------1-1--2-|--------20-0-2-|
---320|-------4--2--|----------42---|
202---|---------0---|---------------|
------|-------------|---------------|


57----|--------0-0-|---------7405-|-------
--10-2|---------0--|-------------0|-------
-0--20|------0-0---|------------5-|-------
4-----|-------42--4|-------0-0--30|-------
--0---|-------2--30|--------3--3--|-------
------|------------|--------------|-------


--5---3-|-----------0---|-------------|
10-30-01|--------0-0---3|-------10----|
--5--202|--------02---2-|-------212---|
--240---|------------2--|-------02-20-|
0-------|-----------3-32|------------3|
--------|----------3----|---------1--2|


------|---------------0|-----------310-0|
-3-010|-----------1013-|--------------3-|
------|----------------|---------------0|
---300|----------------|-----------2-3--|
202---|----------00-2-3|--------0-3-----|
--3--4|-------424------|---------3------|


23-753|--------0-02|-------56---0|------
-01---|------8780--|---------2-3-|------
2-----|------------|----------320|------
------|------------|-------------|------
-20--4|----------30|---------0-24|------
------|-------70---|-------13----|------


35----|---------------|---------
--0-13|------0-0---3--|---------
---20-|-------202---0-|---------
-----3|------0--0323-2|---------
----02|--------------0|---------
013---|---------------|---------


531010------|-----------754|-------0----|
------310-0-|--------------|------313---|
---------2-2|-----------764|---------421|
----0-3-0---|--------320---|-------23---|
3-0---------|--------------|------------|
----------3-|--------------|------------|


--0--1|--------5310-010----|--------------|
10-31-|------------3---3101|---------01---|
--2--2|--------------------|--------2-----|
20---0|------------3-------|--------------|
--320-|--------------------|-----------023|
------|------------------1-|--------------|


245---|--------3104|------4245----|------|
----01|--------3--3|---------5-310|------|
---2--|------------|----------2---|------|
023---|-----------2|------2-0-302-|------|
------|------202---|---------3----|------|
------|------------|--------------|------|


M 9 rld



---------------------------------------
---------------------------------------
---------------------------------------
---------------------------------------
---------------------------------------
---------------------------------------
                                      


                                         
---------------------------------------
------------------------------------2--
-----------------------------------3-0-
---------------------------------------
---------------------------------------
---------------------------------------
                     _   


                          B........   
---------------------------------------
---------------------------------------
---------------------------------------
---------------------------------------
---------------------------------------
---------------------------------------
                           


0                                        
---------------------------------------
---------------------------------------
---------------------------------------
---------------------------------------
---------------------------------------
---------------------------------------
                                      


3                                        
---------------------------------------
---------------------------------------
---------------------------------------
---------------------------------------
---------------------------------------
---------------------------------------
                                      


6                                        
---------------------------------------
---------------------------------------
---------------------------------------
---------------------------------------
---------------------------------------
---------------------------------------
                         


9                                     
---------------------------------------
-----------------------------0-0-0-----
---------------------------------------
--------------------------------------- 
---------------------------------------
---------------------------------------
                                      


2                                        
----0----------------------------------
----------------0-0-0------------------
---------------------------------------
---------------------------------------
-----------1----------2----------------
---------------------------------------
                                      


5                                        
---------------------------------------
---------------------------------------
---------------------------------------
---------------------------------------
---------------------------------------
---------------------------------------
                                      


8                                        
---------------------------------------
---------------------------------------
---------------------------------------
---------------------------------------
---------------------------------------
---------------------------------------
                                      


1                                        
---------------------------------------
---------------------------------------
---------------------------------------
---------------------------------------
---------------------------------------
---------------------------------------
                                      


4                                        
---------------------------------------
---------------------------------------
---------------------------------------
---------------------------------------
---------------------------------------
---------------------------------------
                                      


7                                        
---------------------------------------
---------------------------------------
---------------------------------------
---------------------------------------
---------------------------------------
---------------------------------------
                                      


0                                        
---------------------------------------
----------------------------------/----
---------------------------------------
---------------------------------------
---------------------------------------
---------------------------------------
                                      


3C
-5-----------|
-5-----------|
-6-----------|
-7-----------|
-7-----------|
-5-----------|


W 9 uu ueSiei b





---|--------20-|----------0-5---|
323|----3-23--3|--------20----4-|
---|-----2---0-|--------2-20-542|
---|-------4---|------------4---|
---|-----------|----------------|
---|-----------|----------------|



0-023---|-------------753|----------
-0---02-|--------0--23---|----------
0-----20|--------1--2----|----------
---42---|--------242-4-2-|----------
--------|----------0-2-4-|----------
--------|----------------|----------



-----32050---7|-----------2-3-5-|
0---------320-|---------32-310-3|
0-----------17|---------------2-|
-4202---4-----|---------420-----|
--------------|---------0-------|
--------------|-------------0-2-|



53-----0|----------0--532|--------
-0------|--------32-3---3|--------
5--220-0|--------420-----|--------
---442--|----------042-0-|--------
------0-|--------0---4---|--------
3---3---|----------------|--------



0-------|--------12-00--2|--------
-3-110-4|--------0--223-1|--------
0--220-2|---------3---4--|--------
04------|----------------|--------
--------|----------1-2-0-|--------
--2-3-2-|--------2-------|--------



--5-2-3-|--------3--32753|---------
32---310|-------------0-2|---------
--------|--------4--22-0-|---------
42--0---|--------202-4-2-|---------
0024--0-|----------4-5---|---------
-----7-3|----------------|---------



---332-2|--------32-00--023|--------
30-55303|--------53-2230---|--------
5-0-2-1-|----------0-2-----|--------
--2-4---|--------4---------|--------
--------|--------5---------|--------
3-------|----------0-2-3---|--------



-------------|----------------
3----0----0-0|----------------
2-2-2-0-0--0-|----------------
40-4---0-0---|----------------
5------------|----------------
-------------|----------------



-------------0-0|----------------
-3-3-2-2-3-3----|----------------
----0-2---2-0-2-|----------------
4-4-2---4-------|----------------
5-------5---4---|----------------
----------------|----------------




-----0-02----2-2|---------------|
2-----2--3-3--3-|---------------|
-2--------2-----|---------------|
--2-------------|---------------|
0--40-------0---|---------------|
----------------|---------------|



-5-5--0--5-5-7-7|----0-----------
-----8-8--5---9-|--0----0--------
6-6-7---6---7---|----------------
----------------|----------------
0-------0-------|----------------
----------------|----------------



2----2-2-3-3-5-5|----------------
-3----3-3-3-----|----------------

--2---------5-5-|----------------
0--40-----------|----------------
----------------|----------------
--------0---2---|----------------



-02320---57875--|--9-1-1-171-181|
2-----323-----87|---6-1-8---1---|
----2-------0---|---------------|
--------4-------|---0-----------|
0---------------|-------7---9---|
----------------|---------------|



-757-7-7-7-7-7-7|---------------|
----8-7-5---5-8-|---------------|
0-------5-8-----|---------------|
----------------|---------------|
----------------|---------------|
----------------|---------------|



320-------------|---------------|
---3232323232323|---------------|
----4---3---4---|---------------|
2---3---4---5---|---------------|
----------------|---------------|
----------------|---------------|



---------0-0-2-2|---------------|
0----3030-0-----|---------------|
------------2-2-|---------------|
-20---------0---|---------------|
2--42---4-------|---------------|
----------------|---------------|



-0-79--0---97-0-|---------------|
--1--17--71--9-3|---------------|
6-------8-------|---------------|
----------------|---------------|
0-------9-------|---------------|
----------------|---------------|



--142----2-2-2-2|---------------|
-2---30---------|---------------|
3------21-1-2-2-|---------------|
4---0-----------|---------------|
--------2---4---|---------------|
----------------|---------------|



-53525-5-5-525-5|---------------|
------5-4-5---0-|---------------|
----------------|---------------|
4-----------1---|---------------|
----0---2-------|---------------|
2---------------|---------------|




-32303-3-3-303-3|---------------|
------3-2-3-----|---------------|
--------------2-|---------------|
2---------------|---------------|
--------0---4---|---------------|
0---3-----------|---------------|



2---------------|---------------|
-3-----01------0|---------------|
--2---2--2----2-|---------------|
0--404--0-4204--|---------------|
----------------|---------------|
------------2---|---------------|



-0--------------|---------------|
--0---0230----02|---------------|
0--0-0----1--1--|---------------|
2---2------42---|---------------|
----------------|---------------|
--------0---4---|---------------|



-2--------------|---------------|
--2---1341----13|---------------|
2--2-2----20-2--|---------------|
4---4-------4---|---------------|
------------0---|---------------|
--------2-------|---------------|



----------------|---------------|
0---3---2---3---|---------------|
020-------------|---------------|
---4242424242424|---------------|
--------0---2---|---------------|
----4-----------|---------------|



----------------|---------------|
3-------0----0-0|---------------|
-2-2-2-2-0-0--0-|---------------|
0-4-0-4---0-0---|---------------|
----------------|---------------|
----------------|---------------|



2----220--|-----------0-02------|
-3---332-2|--------32--2--------|
--2---2--0|--------122----------|
0--40-----|---------------------|
--------0-|--------0------------|
----------|---------------------|



0----0-0-0-0----|----------45-332--|
-2-2---------3-3|----------3--553-4|
--2---------1-1-|-----------6-----2|
------2-4-4-----|------------------|
----4---5-------|----------0---2-2-|

------------0---|------------6-----|



-003-3-3-3-2-2|----------------
4---3-2---3-2-|----------------
20------2-----|----------------
--------------|----------------
--------------|----------------
0-------------|----------------



-0-0-0235-5---02|---------
3-3-2-------03--|---------
1---2-0--5-50---|---------
--2-----4-0---4-|---------
----------------|---------
----------------|---------



24244-55-------|----------------
-----------3---|----------------
-------6212-212|----------------
0--------------|----------------
--4-2--0-------|----------------
-----0-----2---|----------------



-------20-|----------0-5---|--------
3----23--3|--------20----4-|--------
-2--2---0-|--------2-20-542|--------
0-40--4---|------------4---|--------
----------|----------------|--------
----------|----------------|--------



-02450--|--------20-3-0--5-|
3----232|----------3-2-32-1|
------42|--------2-4-2----2|
4-0---0-|--------0-5-----4-|
----4---|------------------|
--------|------------------|



-----32050---7|
0-----------0-|
0---------76-7|
-4202---4---6-|
--------------|
--------------|



75--332--|--------53-----0|--------
--02553-3|---------0------|--------
76-------|--------5--220-0|--------
7-------4|-----------442--|--------
---0-----|----------2---0-|--------
-----2-3-|--------3-7-3---|--------



--0--532|--------0-------|--------
32-3---3|---------3-110-4|--------
420-----|--------0--220-2|--------
--042-0-|--------04------|--------
0---4---|----------------|--------
--------|----------2-3-2-|--------



12-00--2|----------5-2-3-|--------
0--223-1|--------32---310|--------

-3---4--|----------------|--------
--------|--------42--0---|--------
--1-2-0-|--------0024-20-|--------
2-------|---------------3|--------




3--3275-|------------332-2|--------
-----0-8|---------30-55303|--------
4--22-06|---------5-0-2-1-|--------
202-4---|-----------2-4---|--------
--4-5-7-|-----------------|--------
--------|---------3-------|--------



32-00--023|---------|
53-2230---|--------3|
--0-2-----|--------2|
4---------|--------4|
5---------|--------5|
--0-2-3---|---------|



oanSbsinBc,W 01Aai oaan1i  io






--------------------|
--------------------|
--------------------|
--------------------|
--------------------|
--------------------|
          

-------------------------|
---p-------p----------h--|
-------------------hh----|
-------------------------|
-------------------------|
-------------------------|
                 

---------p---------------------|
-----------p-ph----------------|
----------------h--------------|
------------------h------------|
-------------------------------|
-------------------------------|
        

-----------------|
-----------------|
-----------------|
-----------------|
-----------------|
-----------------|
 

--------------------|
--------------------|
--------------------|
--------------------|
--------------------|
--------------------|
             

------------------|
-p----------------|
------------------|
------------------|
------------------|
------------------|


-------------php--------|
------------------0----0|
------------------------|
------------------------|
------------------------|
------------------------|


---------------------------|
---------------------------|
---------------------------|
---------------------------|
---------------------------|
---------------------------|
 

-------------------------------|
-ph-----h-h--------------------|
------------------h------------|
-------------------------------|
-------------------------------|
-------------------------------|


--------------------------|
--------------------------|
--------------------------|
--------------------------|
--------------------------|
--------------------------|
		    

----------------h----|
---------------------|
---------------------|
---------------------|
---------------------|
---------------------|


---------------hphhp--|
----------------------|
----------------------|
----------------------|
----------------------|
----------------------|


------------h-h--------------|
----------------h-------p----|
------------------h----------|
--------------------h--------|
-----------------------------|
-----------------------------|
           

-----------------------------------|
-----------------------------------|
--p--------------------------------|
-----------------------------------|
-----------------------------------|
-----------------------------------|


----------------h--|
-------------hh----|
-------------------|
-------------------|
-------------------|
-------------------|
 

--------------------------|
--------0------0----------|
--------------------------|
---------0----------------|
--------------------------|
--------------------------|


-----------------|
-----------------|
-----------------|
-----------------|
-----------------|
-----------------|
                

--------------------------|
-----p-p------------------|
----------pp--------------|
--------------------------|
---------------h----------|
--------------------------|
 

-----------------------|
--0--------------------|
------------------hp---|
-----------------------|
-----------------------|
-----------------------|


-----------------------|
----p-ph---------------|
-----------------------|
-----------------------|
-----------p-ph--------|
-----------------------|



iiin rmvoi oosnt ,BV10



|-------------|----------0--|
|-5---5--313--|-------------|
|-------------|--2--2--0-0--|
|-------------|---------3---|
|-------------|-------------|
|-------------|-------------|



--5--5----3--|----------0--0-
--------860--|---------------
-------------|---------------
----------2--|---------------
-------------|--0------------
-------------|---------------



---------------8------410--5--|
--3-3--1--------------3--31-0-|
---51--2-------7-------------2|
----2-----------------2-------|
-------0----7--8--------------|
------------------------------|



------------------1--015-----53---|
--------------------3---31-36--653|
-------------------2------4-------|
------------------0---------------|
----------------------------------|
--------------------------3-------|



---------------------10-----0---5-|
-------------------03--3101----5-3|
------------------1--------2-0----|
------------------2-----------3---|
--------------------------0-------|
----------------------------------|



-----8--757--|------3---------
-----5-------|------2---------
----------7--|----------------
-----7----5--|------2---------
-------------|----------------
--0----------|----------------



--------------------2-2-2-2-081-7-
----------------------------------
----------------------------------
------------------7---------------
------------------0---------------
----------------------------------



----1---7----2--|---0-1-1--1-878---|
--1-1-1-1-8-----|-------8------1-1-|
-----------1-2--|-0-091---09-------|
----------------|------------------|
----------------|------------------|
----------------|------------------|



----1-------1---|--8-8----757---
-0--8-8-0-------|--5-5------8---
--------2-091---|---7-----------
--------------1-|---------------
----------------|---------------
----------------|---------------



---01---1-878-1---7---1----2--1---
--6---86----1-----1-87--1-----0-0-
----1---9-------------1----1--1---
----------------------------------
----------------------------------
----------------------------------



----8--7--5--|--7----5----3-
-------5--5--|--5--424----0-
---08--0-----|--0-----------
--7-7-----4--|-------4------
-------------|-------2------
-------------|------------0-



--202--0----0--0--------0-----|
-------0-----------54545------|
---------------0--------------|
------------4---4244----2--2--|
-------3----0--2---2----------|
------------------------0-----|



-------------|-------------|
-------------|----------3--|
-------2--2--|--0-0--------|
--0-0--------|---3---3--4--|
---3---3--0--|-------5--2--|
-------------|-------------|



-----------0----0--------7--7-
--101-------------------------
----2----0-0------------------
----------4-----4-------------
----------------1-------------
------------------------------



-------5--323--|-----7--6--7--|
---081-5-------|-----5--5--4--|
---------------|-----0-----4--|
-0-----4-------|--------4-----|
---------------|--------------|
---------------|--------------|



--5--2--3--0--0--1---------
--------------0-----4----4-
-----------------2--2----2-
---------------------------
--------------3--3--2----2-
---------------------------



--867-1-2-0-0--|----7-1-1-2-2--|
------0-0------|-0--8----------|
--------2------|------1-1-2-2--|
--------0------|---------------|
---------------|---------------|
---------------|---------------|



---73-------------2-2-2-2-7-5-7-3|
----5-------------4-4-4-4-5-5-5-5|
--0--------------2-0-2---0---0---|
-----------------------4---4---2-|
---------------------------------|
---------------------------------|



------------------3-2-3-5-7-8------
------------------5-4-5-7-8-1------
-----------------------------------
-----------------------------------
-----------------------------------
-------------------0-0-0-0-0-------



------------------1----1-1--4-1--4-1--
------------------------------1-------
------------------1----1-1--4----4-1--
--------------------------------------
--------------------------------------
------------------------0----0----0---



-1-9-1--2-1--2-1--1-|
--------------------|
-1-9-1--2-1--2-1--1-|
--------------------|
--------------------|
--0-0----0----0----0|



------2---0-1-081---------5----5---0--|
----1--1---0-------------5-5----868-2-|
---2-----2--------------5---5--------2|
-----------------------7-----7--------|
----------------------0-------7-------|
--------------------------------------|



-----1-----1----------3563-----35---|
----0--06------------3----5---6--63-|
---------7-----------------5-5-----4|
----------7---------5-------3-------|
------------------------------------|
------------------------------------|



----------------------0-------0---|
---------------------2-2-----2-2--|
--------------------0---0---0---0-|
-------------------2-----2-2-----2|
------------------0-------0-------|
----------------------------------|



----------------------------------|
----------------------3-------3---|
---------------------2-2-----2-2--|
-------------------03---30-03---30|
------------------1-------1-------|
----------------------------------|



-----------------------1---8645323|
----------------------3-423-------|
---------------------2------------|
-------------------03-------------|
------------------0---------------|
----------------------------------|



----0--1---9-2----5-5--5----0-
-----------5-----5-23--3------
--2-0--1-0-0-2----------------
-------7--------3------2------
-------0--8-----0------0------
-------------2----------------



--0------------|-------------|
---34--3--32323|-------------|
----0--1-------|-------------|
----------2----|-------------|
----1--2--0----|--5--5--323--|
---------------|-------------|



-------------|--3-3--3-----01|
----------3--|--101--1----3--|
--0--0-------|----2--2----0--|
--------323--|-------0-------|
-------------|----0----------|
-------------|---------------|



--8--8--757--|-0-0-0-0-0----1--|
--5--5-------|----------------0|
--0--0--757--|-0-0-0-0-0----1--|
-------------|-----------------|
-------------|-----------------|
--8--8-------|-----------------|



--8-5----5-1---|--0--0--10---|
--585-----5-30-|----------3--|
---------5----0|--0--0--20---|
----3------0---|----------3--|
---------------|--3--2----2--|
---------------|-------------|



--3--3--531--|--78875-8--10--|
--1--1-------|-------8---0-31|
----------0--|----7------0---|
--2--2-------|---------------|
----------2--|---------------|
-------------|---------------|



--------------------53------------|
-------------------5--653103-3-3-3|
----------------------------2-1---|
------------------3-------------4-|
----------------------------------|
----------------------------------|



--------------------0-------------|
----------------------------1---3-|
------------------0--0------------|
----------------------32302--230-4|
-------------------3-------0------|
----------------------------------|



-----------------|-----------------
--------------30-|-----------------
-------------0--1|-----------------
-----------------|-----------------
-----------------|-----------------
-----------------|-----------------



------------------------1--------0-|
--------------------9-9------------|
---------------------9-9----------9|
-------------------9---------------|
-----------------------------------|
------------------0----------------|



------------------------8-------85|
--------------------7-7-----7-7---|
-------------------8-8-8-8-8-8-8--|
----------------------------------|
----------------------------------|
------------------0-------0-------|



-----2-2-2-0--0-0--1-878--8--7--|
------------1-------------5--4--|
---------0---------1------------|
-------0---------------------4--|
---------2---------1------8-----|
--------------------------------|



--5--2--3--0--0---------------
--------------0---------------
------------------------------
------------------------------
--------------3---------------
------------------------------



---------------------10-7-01------|
-------------------03--3-3--013--0|
------------------1------------12-|
----------------------------------|
------------------2---------------|
----------------------------------|



--0--0-------|------------5-
--------323--|--313--1------
-------------|--424--4------
--------323--|-------2------
-------------|--------------
-------------|--------------



--7------5--5--5---------1--|
---------------0------------|
---------5--5------------2--|
---------2--2--2-------0-0--|
--------------------2---4---|
----------------------------|



----0--5------|--1-0--5----4-
-------5------|---3--------0-
----0---------|-------5------
-------3------|------------2-
--323---------|--------------
--------------|-------0------



--5--5--7-------------5----53130--|
-----0---------------5-5--0-----2-|
--5-----7-----------5---5--------2|
-----4-------------7-----7--------|
--7--6------------0---------------|
----------------------------------|



-----------------------1-------147|
---------------------23------03---|
--------------------2---32--1-----|
-------------------3-------0------|
------------------0-------2-------|
----------------------------------|



--------8-----571---1---------------
-------0----36----------------------
-----------2------------------------
---------03-------------------------
-------------------7----------------
------------------------------------



------------------4--------
------------------3--------
------------------4--------
------------------2--------
---------------------------
------------------0--------



--------------------------5-
--------------------------4-
----------------------------
----------------------------
----------------------------
----------------------------



---------------------|
---------------------|
---------------------|
---------------------|
---------------------|
---------------------|


W 9 iu ueSieN  nC
uainLgn
-------
  hl
  af
  ure
  t
  6h
  2d
  4h
  oedte
-- -ntpes


altr eed
--------
  idnt
  ednt
  rc oe
n  hs oe
g;-acnue oe
H-ntrlhroi
H-atfca amnc
H-tpe amnc
H-sm amnc
H-pthhroi
  amro
  ulof
  ed
r-bnRlae
b-peed
b  rBnRlae
r  edeesBn
n  rml a i
n-teoobrdv
/  rml a ees p
n  rml a netddp
n-teoobrrtr
\  rml a ees on
  hf ld
  eaosie
  sieit rmblwo u fuwrs
  sieit rmaoeo u fdwwrs
  irt
  ievbao
r-til
P-teoopcig
  apn
  lp
  o
l;-fd n
  rs p


..Bc:Lt ut o2(W 9)-Gge

rgnlTbaueb:T LPI  jl@o.o

orcin n efratn y lGao-Jnay20

hsi yrvso ae nT LPI' rgnltb hc a ntr 
ae nPu odzaositrrtto ftesn rmht:/p.o

onWlim lohsagetrcrigo hspee h nycag  
ol eri hth ly noe  ttebgnigo h eet 
esr nta fa pnB

o h otpr,teoiia a a rtygo,ecp eeadtee
 e esrswr rnpsdtolw  e oe eemsig n h 
omtigwssas adi h rn iesgaue.Ti ogcnnw
lob er xcl nWe' rhv,a h e IIwihIa 
umtigwt hsi neatpatruho hstb

IIfl nteCasclGia altr ae

nt:tetbhstemi eto h n oeo h esrs-We]


uig       Tm intr:68

ossatpcn t9 p,epai ntedte et.


    .              .            
|------0-----0-----5---0-hhp-0-----|
|---3-----0-------------------3-p-3|
|*---------------h-----------------|
|*---------------------------------|
|---0--------------3---------------|
|----------------------------------|


  .             .              . 
-------------|-----0-----0--------|
--01310------|-----------------3--|
-------2-----|--2-----2-----4-----|
-------------|--------------------|
--0----2-----|-----------------0--|
()-----------|--0-----------------|


  .              .     .      
--5-45--8--5--------|--7--4--5-
--------------------|----------
--------------------|----------
--3--------------2-4|----------
--------------------|--0--2----
--------------------|----------


  .              .     .          
--0--------5--7--2--|----------
-----2--3--------0--|--4--0--1-
--------------------|--0-------
--0--2-----5--------|-----3----
--------------------|----------
--------------------|----------


  .              .           .        
--4--0--1--7--8-----|-hh-----23532|
-----------------5--|-------------|
--------------------|-------------|
-----------------4--|-------------|
--3-----------------|--------2---2|
--------------------|-------------|


      .      .              .      
---------|---5--7-----7--------|
---------|---------5-----2-----|
---------|*-----------------3--|
------2--|*--------------------|
---------|------------------4--|
---------|---0-----------------|


        .      .    .     .          
-hh-----0131|--31------|-----1----
------------|-------3--|--1-------
------------|----------|--------0-
------------|--0----3--|----------
------------|----------|----------
--------3---|----------|--3-------


  .               .      .          
--1--6--5----------0--|--2--3----
-----------1--------31|----------
----------------------|----------
-----------2----------|-----0--2-
--3---------------3---|----------
----------------------|--3-------


  .              .     .           
--------------0--3--|--31013----
--3-----3-----------|-----------
-----0-----0--------|---------2-
--2--------------0--|--2--------
--------------------|-----------
--------------------|-----------


  .               .     .          
--75457-----8--------|----------
---------------7--4--|--1--3----
---------5-----------|--0-----0-
--6---------------4--|----------
---------------------|----------
---------------------|----------


        .     .              .      
--------0--|-----------8--5--0--|
-hh-------3|--1-----------------|
--------0--|--------------------|
-----------|----20-----------0--|
-----------|--3-----2--0--------|
-----------|--------------------|


  .                       .    .      
--------------------p-------------|
--2--------3--hhpp------10--------|
-----2--3-----------------2-h-----|
--3--2-------------------------2--|
----------------------------------|
------------------------1-0------0|


  .              .                   
-----0-----0-----5---0-hhp-0-----|
--3-----0-------------------3-p-3|
---------------h-----------------|
---------------------------------|
--0--------------3---------------|
---------------------------------|


         .                     .      
---------3-|-ppp-------|----------
--01310----|-------2--3|----------
-------2---|-----------|-2--3-----
-----------|-----------|-------4--
--0----2-4-|-----------|-------1--
()---------|-------0---|-2--------


       .     .              .     
----0---------------|----------
-3-----0------------|-2--3-----
-------------1------|-------2--
-------2--------2--3|----------
-2-----------3--1---|-------4--
--------------------|-3--------


       .           .       .           
-0--1------------------------------|
------------hh-----0131----0-------|
-------2--------------------------*|
-------------------2--------------*|
-------2-------------------0-------|
------------------------------0----|



W 01FgeAlgoVoi oaaN1i mJhn eate ah





|-------------|----------0--|
|-5---5--313--|-------------|
|-------------|--2--2--0-0--|
|-------------|---------3---|
|-------------|-------------|
|-------------|-------------|



--5--5----3--|----------0--0-
--------860--|---------------
-------------|---------------
----------2--|---------------
-------------|--0------------
-------------|---------------



---------------8------410--5--|
--3-3--1--------------3--31-0-|
---51--2-------7-------------2|
----2-----------------2-------|
-------0----7--8--------------|
------------------------------|



------------------1--015-----53---|
--------------------3---31-36--653|
-------------------2------4-------|
------------------0---------------|
----------------------------------|
--------------------------3-------|



---------------------10-----0---5-|
-------------------03--3101----5-3|
------------------1--------2-0----|
------------------2-----------3---|
--------------------------0-------|
----------------------------------|



-----8--757--|------3---------
-----5-------|------2---------
----------7--|----------------
-----7----5--|------2---------
-------------|----------------
--0----------|----------------



--------------------2-2-2-2-081-7-
----------------------------------
----------------------------------
------------------7---------------
------------------0---------------
----------------------------------



----1---7----2--|---0-1-1--1-878---|
--1-1-1-1-8-----|-------8------1-1-|
-----------1-2--|-0-091---09-------|
----------------|------------------|
----------------|------------------|
----------------|------------------|



----1-------1---|--8-8----757---
-0--8-8-0-------|--5-5------8---
--------2-091---|---7-----------
--------------1-|---------------
----------------|---------------
----------------|---------------



---01---1-878-1---7---1----2--1---
--6---86----1-----1-87--1-----0-0-
----1---9-------------1----1--1---
----------------------------------
----------------------------------
----------------------------------



----8--7--5--|--7----5----3-
-------5--5--|--5--424----0-
---08--0-----|--0-----------
--7-7-----4--|-------4------
-------------|-------2------
-------------|------------0-



--202--0----0--0--------0-----|
-------0-----------54545------|
---------------0--------------|
------------4---4244----2--2--|
-------3----0--2---2----------|
------------------------0-----|



-------------|-------------|
-------------|----------3--|
-------2--2--|--0-0--------|
--0-0--------|---3---3--4--|
---3---3--0--|-------5--2--|
-------------|-------------|



-----------0----0--------7--7-
--101-------------------------
----2----0-0------------------
----------4-----4-------------
----------------1-------------
------------------------------



-------5--323--|-----7--6--7--|
---081-5-------|-----5--5--4--|
---------------|-----0-----4--|
-0-----4-------|--------4-----|
---------------|--------------|
---------------|--------------|



--5--2--3--0--0--1---------
--------------0-----4----4-
-----------------2--2----2-
---------------------------
--------------3--3--2----2-
---------------------------



--867-1-2-0-0--|----7-1-1-2-2--|
------0-0------|-0--8----------|
--------2------|------1-1-2-2--|
--------0------|---------------|
---------------|---------------|
---------------|---------------|



---73-------------2-2-2-2-7-5-7-3|
----5-------------4-4-4-4-5-5-5-5|
--0--------------2-0-2---0---0---|
-----------------------4---4---2-|
---------------------------------|
---------------------------------|



------------------3-2-3-5-7-8------
------------------5-4-5-7-8-1------
-----------------------------------
-----------------------------------
-----------------------------------
-------------------0-0-0-0-0-------



------------------1----1-1--4-1--4-1--
------------------------------1-------
------------------1----1-1--4----4-1--
--------------------------------------
--------------------------------------
------------------------0----0----0---



-1-9-1--2-1--2-1--1-|
--------------------|
-1-9-1--2-1--2-1--1-|
--------------------|
--------------------|
--0-0----0----0----0|



------2---0-1-081---------5----5---0--|
----1--1---0-------------5-5----868-2-|
---2-----2--------------5---5--------2|
-----------------------7-----7--------|
----------------------0-------7-------|
--------------------------------------|



-----1-----1----------3563-----35---|
----0--06------------3----5---6--63-|
---------7-----------------5-5-----4|
----------7---------5-------3-------|
------------------------------------|
------------------------------------|



----------------------0-------0---|
---------------------2-2-----2-2--|
--------------------0---0---0---0-|
-------------------2-----2-2-----2|
------------------0-------0-------|
----------------------------------|



----------------------------------|
----------------------3-------3---|
---------------------2-2-----2-2--|
-------------------03---30-03---30|
------------------1-------1-------|
----------------------------------|



-----------------------1---8645323|
----------------------3-423-------|
---------------------2------------|
-------------------03-------------|
------------------0---------------|
----------------------------------|



----0--1---9-2----5-5--5----0-
-----------5-----5-23--3------
--2-0--1-0-0-2----------------
-------7--------3------2------
-------0--8-----0------0------
-------------2----------------



--0------------|-------------|
---34--3--32323|-------------|
----0--1-------|-------------|
----------2----|-------------|
----1--2--0----|--5--5--323--|
---------------|-------------|



-------------|--3-3--3-----01|
----------3--|--101--1----3--|
--0--0-------|----2--2----0--|
--------323--|-------0-------|
-------------|----0----------|
-------------|---------------|



--8--8--757--|-0-0-0-0-0----1--|
--5--5-------|----------------0|
--0--0--757--|-0-0-0-0-0----1--|
-------------|-----------------|
-------------|-----------------|
--8--8-------|-----------------|



--8-5----5-1---|--0--0--10---|
--585-----5-30-|----------3--|
---------5----0|--0--0--20---|
----3------0---|----------3--|
---------------|--3--2----2--|
---------------|-------------|



--3--3--531--|--78875-8--10--|
--1--1-------|-------8---0-31|
----------0--|----7------0---|
--2--2-------|---------------|
----------2--|---------------|
-------------|---------------|



--------------------53------------|
-------------------5--653103-3-3-3|
----------------------------2-1---|
------------------3-------------4-|
----------------------------------|
----------------------------------|



--------------------0-------------|
----------------------------1---3-|
------------------0--0------------|
----------------------32302--230-4|
-------------------3-------0------|
----------------------------------|



-----------------|-----------------
--------------30-|-----------------
-------------0--1|-----------------
-----------------|-----------------
-----------------|-----------------
-----------------|-----------------



------------------------1--------0-|
--------------------9-9------------|
---------------------9-9----------9|
-------------------9---------------|
-----------------------------------|
------------------0----------------|



------------------------8-------85|
--------------------7-7-----7-7---|
-------------------8-8-8-8-8-8-8--|
----------------------------------|
----------------------------------|
------------------0-------0-------|



-----2-2-2-0--0-0--1-878--8--7--|
------------1-------------5--4--|
---------0---------1------------|
-------0---------------------4--|
---------2---------1------8-----|
--------------------------------|



--5--2--3--0--0---------------
--------------0---------------
------------------------------
------------------------------
--------------3---------------
------------------------------



---------------------10-7-01------|
-------------------03--3-3--013--0|
------------------1------------12-|
----------------------------------|
------------------2---------------|
----------------------------------|



--0--0-------|------------5-
--------323--|--313--1------
-------------|--424--4------
--------323--|-------2------
-------------|--------------
-------------|--------------



--7------5--5--5---------1--|
---------------0------------|
---------5--5------------2--|
---------2--2--2-------0-0--|
--------------------2---4---|
----------------------------|



----0--5------|--1-0--5----4-
-------5------|---3--------0-
----0---------|-------5------
-------3------|------------2-
--323---------|--------------
--------------|-------0------



--5--5--7-------------5----53130--|
-----0---------------5-5--0-----2-|
--5-----7-----------5---5--------2|
-----4-------------7-----7--------|
--7--6------------0---------------|
----------------------------------|



-----------------------1-------147|
---------------------23------03---|
--------------------2---32--1-----|
-------------------3-------0------|
------------------0-------2-------|
----------------------------------|



--------8-----571---1---------------
-------0----36----------------------
-----------2------------------------
---------03-------------------------
-------------------7----------------
------------------------------------



------------------4--------
------------------3--------
------------------4--------
------------------2--------
---------------------------
------------------0--------



--------------------------5-
--------------------------4-
----------------------------
----------------------------
----------------------------
----------------------------



---------------------|
---------------------|
---------------------|
---------------------|
---------------------|
---------------------|




i nTeGSrn 




                              
----------------------------------
----------------------------------
----------------------------------
----------------------------------
----------------------------------
----------------------------------

                              
----------------------------------
----------------------------------
----------------------------------
----------------------------------
----------------------------------
----------------------------------

                              
----------------------------------
----------------------------------
----------------------------------
----------------------------------
----------------------------------
----------------------------------

                              
----------------------------------
----------------------------------
----------------------------------
----------------------------------
----------------------------------
----------------------------------

                              
----------------------------------
----------------------------------
----------------------------------
----------------------------------
----------------------------------
----------------------------------

                              
----------------------------------
----------------------------------
----------------------------------
----------------------------------
----------------------------------
----------------------------------

                              
----------------------------------
----------------------------------
----------------------------------
----------------------------------
----------------------------------
----------------------------------

                              
----------------------------------
----------------------------------
----------------------------------
----------------------------------
----------------------------------
----------------------------------

 h                            
-^--------------------------------
----------------------------------
----------------------------------
----------------------------------
----------------------------------
----------------------------------

                              
----------------------------------
------------------------------^^^-
----------------------------------
----------------------------------
----------------------------------
----------------------------------

                              
----------------------------------
----------------------------------
----------------------------------
----------------------------------
----------------------------------
----------------------------------

                              
----------------------------------
----------------------------------
----------------------------------
----------------------------------
----------------------------------
----------------------------------

                              
----------------------------------
-010------------------------------
----------------------------------
----------------------------------
----------------------------------
----------------------------------

                              
----------------------------------
----------------------------------
----------------------------------
----------------------------------
----------------------------------
----------------------------------

                              
----------------------------------
----------------------------------
----------------------------------
----------------------------------
----------------------------------
----------------------------------

                              
----------------------------------
----------------------------------
----------------------------------
----------------------------------
----------------------------------
----------------------------------

                              
----------------------------------
----------------------------------
----------------------------------
----------------------------------
----------------------------------
----------------------------------

                              
----------------------------------
--------------------------^^------
----------------------------------
----------------------------------
----------------------------------
----------------------------------

             
----------------|
----------------|
----------------|
----------------|
----------------|
----------------|


Pesmarice - Pesmarica J.S. Bacha - indeksirano na Trzalica.com.
Uporabniki, ki so igrali Pesmarice - Pesmarica J.S. Bacha, so igrali tudi sledeče pesmi od Pesmarice:
Pesmarica - NA OBALI S KITARO V ROKI, 5 najboljših rock solotov

Namig:

Preizkusite AutoScroller ... Tako se lahko povsem posvetite preigravanju kitare, medtem ko se bo besedilo z akordi avtomatsko pomikalo po ekranu. S pomočjo miške oziroma tipkovnice (tipke 0, 1, 2 in 3) lahko izbirate med različnimi hitrostmi premikanja besedila.

Pokažite svoj talent!

Tu lahko objavite vaš video ali audio posnetek! Hočem vedeti več ...
Kje lahko najdemo vaš nastop? Hočem vedeti več ...
Vaš komentar:
Prosimo, prijavite se in objavite vaš nastop.