Izvajalci:   A B C Č D E F G H I J K L M N O P Q R S Š T U V W X Y Z Ž
Trenutna ocena: 3
Oceni akorde:
1  2  3  4  5
Transponiraj pesem:
#======================== !!! N E   P R E Z R I !!! ===========================#
#     Transkripcija je delo njenega avtorja in predstavlja njegovo lastno      #
# interpretacijo skladbe. Njen namen ni kršenje avtorskih pravic, temveč pomoč #
# drugim glasbenikom pri učenju in izpopolnjevanju kitarske tehnike ter znanja.#
# Uporaba gradiva na portalu Trzalica.com je dovoljena le za osebno uporabo in #
#  le ob pogoju, da si lastite originalen izdelek danega glasbenega izvajalca. #
#       Portal Trzalica.COM ne odgovorja za nespoštovanje teh pravil.          #
#==============================================================================#
#                                                                              #
#                    w w w . t r z a l i c a . c o m                           #
#               K j e r   i m a m o   r a d i   g l a s b o                    #
#                                                                              #
#==============================================================================#

	 Izvajalec: ..................... Dan D
	 Skladba: ....................... Voda
	 Transkripcijo izdelali ......... posnjak, tejo009, AliAs
	 Domača stran transkripcije ..... www.trzalica.com

Akordi:
	E    0 2 2 1 0 0
	Hm   X 2 4 4 3 2
	F#m  2 4 4 2 2 2
	Am   X 0 2 2 1 0
Besedilo: vzeto s strani www.dan-d.net
 
================================================================================

Uvod:
  E  Hm  F#m  Am  (akordi se ponavljajo skozi celo pesem)

------------------------10--10--9---9---7--7--9---9-----9------12p9--------9/12--12------15p12-------
---7^---5--7^---7^----12--12--10--10--9--9--10--10-------10--------10---10/13------13---------13---
-----------------------------------------------------------------------------------------------------
-----------------------------------------------------------------------------------------------------
-----------------------------------------------------------------------------------------------------
-----------------------------------------------------------------------------------------------------
    
---16--16---14--14---12--12---10--10--9---9---7--7--9---9-----9------12p9--------9/12--12------14p12-------
---17--17---17--17---14--14---12--12--10--10--9--9--10--10-------10--------10---10/13------13---------13---
-----------------------------------------------------------------------------------------------------------
-----------------------------------------------------------------------------------------------------------
-----------------------------------------------------------------------------------------------------------
-----------------------------------------------------------------------------------------------------------


E             Hm
Bolečino pijemo 
                    F#m
Skozi dno se vidi svet
                    Am
Lepota je skrita v nas
                  E
Vse navidezno je laž
                        Hm
Sijaj in beda, drek zlato
                    F#m
V žepih ni to kar imaš
              Am
Pripada ti le to 
                  E  Hm   F#m   Am
Kar na srečo zaigraš...zaigraj


Refren:
    E  Hm               F#m  Am
In pusti naj te nosi voda, aha
 E             Hm                F#m  Am
para, para, para, pararararararara, aha


  E                  Hm
Povej vsem da si odkrit
                   F#m
Streljaj ravno v oči
                    Am
Poljubi roko bližnjega
                    E
Da bi videl če še znaš
                     Hm
Tam kjer si ustavil film
                       F#m
Tam kjer ostali so ljudje
                    Am
Spomni se zdaj ko si sam
                    E  Hm            F#m  Am
Reci ljubiti še znam... ljubiti še znam


Refren:
    E  Hm               F#m  Am
In pusti naj te nosi voda, aha
 E             Hm                F#m  Am
para, para, para, pararararararara, aha


  E  Hm  F#m  Am


------------------------10--10--9---9---7--7--9---9-----9------12p9--------9/12--12------15p12-------
---7^---5--7^---7^----12--12--10--10--9--9--10--10-------10--------10---10/13------13---------13---
-----------------------------------------------------------------------------------------------------
-----------------------------------------------------------------------------------------------------
-----------------------------------------------------------------------------------------------------
-----------------------------------------------------------------------------------------------------
    
---16--16---14--14---12--12---10--10--9---9---7--7--9---9-----9------12p9--------9/12--12--12--12--12--14--12---
---17--17---17--17---14--14---12--12--10--10--9--9--10--10-------10--------10---10/13--13--13--13--13--13--13---
----------------------------------------------------------------------------------------------------------------
----------------------------------------------------------------------------------------------------------------
----------------------------------------------------------------------------------------------------------------
----------------------------------------------------------------------------------------------------------------


Refren:
    E  Hm               F#m  Am
In pusti naj te nosi voda, aha
 E             Hm                F#m  Am
para, para, para, pararararararara, aha


  E  Hm  F#m  Am


Dan D - Voda - indeksirano na Trzalica.com.
Uporabniki, ki so igrali Dan D - Voda, so igrali tudi sledeče pesmi od Dan D:
Čas, Lep dan za smrt (DanD priredba), Roke (feat Polona Kasal), Za naju punca,
Le naprej, Plešeš

Namig:

Če se vam niti ne sanja, kako prijeti akord "Absus4" in podobne eksote, se z miško zapeljite nad akord in prikazal se vam bo diagram akorda.

Pokažite svoj talent!

Tu lahko objavite vaš video ali audio posnetek! Hočem vedeti več ...
Kje lahko najdemo vaš nastop? Hočem vedeti več ...
Vaš komentar:
Prosimo, prijavite se in objavite vaš nastop.