Izvajalci:   A B C Č D E F G H I J K L M N O P Q R S Š T U V W X Y Z Ž
Trenutna ocena: 5
Oceni akorde:
1  2  3  4  5
Transponiraj pesem:
#======================== !!! N E   P R E Z R I !!! ===========================#
	#     Transkripcija je delo njenega avtorja in predstavlja njegovo lastno      #
	# interpretacijo skladbe. Njen namen ni kršenje avtorskih pravic, temveč pomoč #
	# drugim glasbenikom pri učenju in izpopolnjevanju kitarske tehnike ter znanja.#
	# Uporaba gradiva na portalu Trzalica.com je dovoljena le za osebno uporabo in #
	#  le ob pogoju, da si lastite originalen izdelek danega glasbenega izvajalca. #
	#       Portal Trzalica.COM ne odgovorja za nespoštovanje teh pravil.          #
	#==============================================================================#
	#                                                                              #
	#                    w w w . t r z a l i c a . c o m                           #
	#               K j e r   i m a m o   r a d i   g l a s b o                    #
	#                                                                              #
	#==============================================================================#

Naslov:..........KUŽA PAZI
Avtor pesmi:.....Janez Bitenc
Transkripcija:...shemshi (www.trzalica.com)


Takt: 2/4

Osnovna melodija (4x)

E |---------|---------|---------|--------|
H |---------|---------|---------|--------|
G |---------|---------|---------|--------|
D |---------|-0-0-0-0-|-2-2-0-0-|--------|
A |-3-3-3-3-|---------|---------|-3-3-3--|
e |---------|---------|---------|--------|


1. Kuža pazi z repkom miga vstane, leže, tačko da.
   Hišo čuva, jezno laja, ko nikogar ni doma.

2. Ko pa Jurček cicibanček truden se odpravi spat
   kuža naš pred vrata leže da ne vzame Jurčka tat.


Sedaj poskusi oktavo višje (4x):

E |---------|---------|-0-0-----|--------|
H |-1-1-1-1-|-3-3-3-3-|-----3-3-|-1-1-1--|
G |---------|---------|---------|--------|
D |---------|---------|---------|--------|
A |---------|---------|---------|--------|
e |---------|---------|---------|--------|


Sedaj pa poskusi zaigrati drugo različico z bas spremljavo. 
Bas struno (A oz. D) pustiti zveneti dokler ne zaigraš 
naslednjega bas tona.

Za lažji začetek lahko poskusiš takole (4x):

E |---------|---------|-0-0-----|--------|
H |-1-1-1-1-|-3-3-3-3-|-----3-3-|-1-1-1--|
G |---------|---------|---------|--------|
D |---------|---------|---------|--------|
A |-3-------|---------|-3-------|-3------|
e |---------|-3-------|-----3---|--------|

Nadaljuješ pa tako (4x):

E |---------|---------|-0-0-----|--------|
H |-1-1-1-1-|-3-3-3-3-|-----3-3-|-1-1-1--|
G |---------|---------|---------|--------|
D |---------|---------|---------|--------|
A |-3---3---|---------|-3-------|-3---3--|
e |---------|-3---3---|-----3---|--------|


Za konec pa še akordi:

C         G
Kuža pazi z repkom miga,
C       G     C
vstane, leže, tačko da.
C          G
Hišo čuva, jezno laja,
C    G     C
če nikogar ni doma.

C            G
Ko pa Jurček cicibanček
C      G      C
truden se odpravi spat,
C             G
kuža naš pred vrata leže,
C     G     C
da ne vzame Jurčka tat.


Otroške - Kuža pazi - indeksirano na Trzalica.com.
Uporabniki, ki so igrali Otroške - Kuža pazi, so igrali tudi sledeče pesmi od Otroške:
Huda mravljica, Če si srečen, Na okno tok tok, Enkrat je bil en škrat, Mojster Jaka,
En hud pesjan

Namig:

Če se vam niti ne sanja, kako prijeti akord "Absus4" in podobne eksote, se z miško zapeljite nad akord in prikazal se vam bo diagram akorda.

Pokažite svoj talent!

Tu lahko objavite vaš video ali audio posnetek! Hočem vedeti več ...
Kje lahko najdemo vaš nastop? Hočem vedeti več ...
Vaš komentar:
Prosimo, prijavite se in objavite vaš nastop.