Izvajalci:   A B C Č D E F G H I J K L M N O P Q R S Š T U V W X Y Z Ž
Trenutna ocena: 0
Oceni akorde:
1  2  3  4  5
Transponiraj pesem:
1.Stairway to heaven
Led Zeppelin



 
E-------5-7-----7-|-8-----8-2-----2-|-0---------0-----|-----------------|
B-----5-----5-----|---5-------3-----|---1---1-----1---|-0-1-1-----------|
G---5---------5---|-----5-------2---|-----2---------2-|-0-2-2-----------|
D-7-------6-------|-5-------4-------|-3---------------|-----------------|
A-----------------|-----------------|-----------------|-2-0-0---0--/8-7-|
E-----------------|-----------------|-----------------|-----------------|
 
E---------7-----7-|-8-----8-2-----2-|-0---------0-----|-----------------|
B-------5---5-----|---5-------3-----|---1---1-----1---|-0-1-1-----------|
G-----5-------5---|-----5-------2---|-----2---------2-|-0-2-2-----------|
D---7-----6-------|-5-------4-------|-3---------------|-----------------|
A-0---------------|-----------------|-----------------|-2-0-0-------0-2-|
E-----------------|-----------------|-----------------|-----------------|
 
E-------0-2-----2-|-0-----0----------|---------3-----3-|
B-----------3-----|---1-----0h1------|-1-----1---0-----|
G-----0-------2---|-----2-------2----|---0---------0---|
D---2-----0-------|-3----------------|-----2-----------|
A-3---------------|---------0----0-2-|-3---------------|
E-----------------|------------------|---------3-------|
                                                               Intro end.
E---------2-----2-|-0-----0----------|---------------2-|-0-0-0-----------|
B-------1---3-----|---1-----0-1------|-------1-----3---|-1-1-1-----------|
G-----0-------2---|-----2-------2----|-----0-----2-----|-2-2-2-----------|
D---2-----0-------|-3----------------|---2-----0-------|-3-3-3-----------|
A-3---------------|---------0----0-2-|-3---------------|-----------------|
E-----------------|------------------|-----------------|-----------------|
                                                               Theres a
 
E-------5-7-----7-|-8-----8-2-----2-|-0---------0-----|-----------------|
B-----5-----5-----|---5-------3-----|---1---1-----1---|-0-1-1-----------|
G---5---------5---|-----5-------2---|-----2---------2-|-0-2-2-----------|
D-7-------6-------|-5-------4-------|-3---------------|-----------------|
A-----------------|-----------------|-----------------|-2-0-0-----------|
E-----------------|-----------------|-----------------|-----------------|
 lady whos         glitter            buying a          heaven When she
 
E-------5-7-----7-|-8-----8-2-----2-|-0---------0-----|-----------------|
B-----5-----5-----|---5-------3-----|---1---1-----1---|-0-1-1-----------|
G---5---------5---|-----5-------2---|-----2---------2-|-0-2-2-----------|
D-7-------6-------|-5-------4-------|-3---------------|-----------------|
A-----------------|-----------------|-----------------|-2-0-0-------0-2-|
E-----------------|-----------------|-----------------|-----------------|
  gets there        stores are       ord she can get    came for
 
E---------2-----2-|-0-----0---------------|---------3-----3-|-3^2-2-2-------|
B-------1---3-----|---1----1--0-1---------|-1---1-1---0-----|-3---3-3-------|
G-----0-------2---|-----2---------2-------|---0-0-------0---|-2-----2-------|
D---2-----0-------|-3---------------------|-----2-----------|-0-----0-------|
A-3---------------|-----------0------0-2--|-3---------------|-----------0-2-|
E-----------------|-----------------------|---------3-------|---------------|
  Oooh              oooh           and shes buying a          heaven   Theres
 
E-------0-2-----2-|-0-----------------|---------2-----2-|-0-0-0-----------|
B-----------3-----|---1--1--0 1-------|-1-----1---3-----|-1-1-1-----------|
G-----0-------2---|-----2-------2-----|---0---------2---|-2-2-2-----------|
D---2-----0-------|-3-----------------|-----2---0-------|-3-3-3-----------|
A-3---------------|---------------0-2-|-3---------------|-----------------|
E-----------------|-------------------|-----------------|-----------------|
  sign on     she  wants         you   know         two   meanings    In a
 
E-------5-7-----7-|-8-----8-2-----2-|-0---0-----0-----|-----------------|
B-----5-----5-----|---5-------3-----|---1---1-----1---|-0-1-1-----------|
G---5---------5---|-----5-------2---|---------------2-|-0-2-2-----------|
D-7-------6-------|-5-------4-------|-3---------------|-----------------|
A-----------------|-----------------|-----------------|-2-0-0---0--/8-7-|
E-----------------|-----------------|-----------------|-----------------|
  tree    theres a song        times all of our    mis  given
 
E--------5-7---7---|----8-------2------|----0-------0----|-----------------|
B-----------5-5-5--|---5-5-----3-3-----|---1--1----1-1---|-0-1-1-------3---|
G------5-----5---5-|--5---5---2---2--2-|--2----2--2---2--|-0-2-2-------0---|
D----7-----6-------|-5-----5-4-----4---|-3-------3-----3-|-------------0---|
A-0-0--------------|-------------------|-----------------|-2-0-0-------2---|
E------------------|-------------------|-----------------|-----------------|
 
|-3---3-3-3--3--0-0-|-2-------2-------|-3--3-3-3--3--0-0---7-|--5---3---5----|
|-1---1-1-1--1--1-3-|-3--3--3---3-0-0-|-1--1-1-1--1--1-1---8-|--7---5---7----|
|-2---2-2-2--2--2-2-|-2-----------0-0-|-2--2-2-2--2--2-2---9-|--7---5---7----|
|-2---2-2-2--2--2---|---0-------------|-2--2-2-2--2--2-2---0-|-------------0-|
|-------------------|-----------------|----------------------|-------------0-|
|-------------------|-----------------|----------------------|---------------|
                      Oooh it makes me wonder
|-3---3-3-3--3--0-0-|-2-------2-------|-3--3-3-3--3--0-0---7-|--5---3---5----|
|-1---1-1-1--1--1-3-|-3--3--3---3-0-0-|-1--1-1-1--1--1-1---8-|--7---5---7----|
|-2---2-2-2--2--2-2-|-2-----------0-0-|-2--2-2-2--2--2-2---9-|--7---5---7----|
|-2---2-2-2--2--2---|---0-------------|-2--2-2-2--2--2-2---0-|-------------0-|
|-------------------|-----------------|----------------------|-------------0-|
|-------------------|-----------------|----------------------|---------------|
   oooh               makes me wonder                                theres a
 
------------------|------------------------|-----------------0--|--0--------|
---------1------3-|-0h1----------1---------|-------1---------0--|--1--------|
-------0------0---|-----2-------2----------|-----0--------0--2--|--2--------|
-----2------0-----|---------2--------------|---2--------0----3--|--2--------|
-0h3------2-------|-------0----------0--2--|-3--------2------3--|--0---0-2--|
------------------|------------------------|-----------------1--|-----------|
feeling      when  look to             my    spirit          leaving  in my
whispered          all call the tune then the piper will      to  reason  &
 
----------------|--------------------|----------------0-|--0------|---------|
-------1------3-|-0h1---------1------|-------1--------1-|--1------|----1---3|
-----0------0---|-----2-----2--------|-----0-------0--2-|--2------|---0---0-|
---2------0-----|---------2----------|---2-------0----3-|--2------|--2---0--|
-3------2-------|-------0------0--2--|-3-------2------3-|--0--0-2-|-3---2---|
----------------|--------------------|----------------1-|---------|---------|
thoughts I        smoke through         voices of       looking  [goto %]
new day           those who             forests will  laugh - ter
 
|-3--3-3-3--3p-0-0---7-|--5---3---5----|-3--3-3-3--3h-0-0-|-2-----2-2-2-2-0-0-|
|-1--1-1-1--1--1-1---8-|--7---5---7----|-1--1-1-1--1--1-3-|-3-----3-3-3-3-0-0-|
|-2--2-2-2--2--2-2---9-|--7---5---7----|-2--2-2-2--2--2-0-|-2-----2-2-2-2-0-0-|
|-2--2-2-2--2--2-2---0-|----------0----|-2--2-2-2--2--2---|----0--0-----------|
|----------------------|-------------0-|------------------|-------------------|
|----------------------|---------------|------------------|-------------------|
                                                            whoah
|-3--3-3-3--3--0-0---7-|--5---3---5----|
|-1--1-1-1--1--1-1---8-|--7---5---7----|
|-2--2-2-2--2--2-2---9-|--7---5---7----|
|-2--2-2-2--2--2-2---0-|----------0----|
|----------------------|-------------0-|
|----------------------|---------------|
 
 
------------------|------------------------|-----------------0--|--0--------|
---------1------3-|-0h1----------1---------|-------1---------1--|--1--------|
-------0------0---|-----2-------2----------|-----0--------0--2--|--2--------|
-----2------0-----|---------2--------------|---2--------0----3--|--2--------|
-0h3------2-------|-------0----------0--2--|-3--------2------3--|--0---0-2--|
------------------|------------------------|-----------------1--|-----------|
If theres a bust   'edge row dont            its just a           Queen
Yes there are       go by but                 and theres still     your on
 
----------------|-3--3-3-3--3--0-0-|-2-----2-2-2-2-----|-3--3-3-3--3--0-7-|
-------1------0-|-1--1-1-1--1--1-3-|-3-----3-3-3-3-0-0-|-1--1-1-1--1--1-8-|
-----0------0---|-2--2-2-2--2--0-0-|-2--2--2-2-2-2-0-0-|-0--0-2-0--0--0-9-|
---2------0-----|-2--2-2-2--2------|----0--0-----------|-2--2-2-2--2------|
-3------2-------|------------------|-------------------|------------------|
----------------|------------------|-------------------|------------------|
                                          and it    won  der
 
-5--3--5--|-3--3-3-3--3--0-0-|-2-----2-2-2-2-0-0-|-3--3-3-3--3--0-7-|-5--3--5-|
-7--5--7--|-1--1-1-1--1--1-3-|-3--3--3-3-3-3-0-0-|-1--1-1-1--1--1-8-|-7--5--7-|
-7--5--7--|-2--2-2-2--2--0-0-|-2--2--2-2-2-2-0-0-|-0--0-2-0--0--0-9-|-7--5--7-|
----------|-2--2-2-2--2------|-------------------|-2--2-2-2--2------|---------|
--------0-|------------------|-------------------|------------------|--------0|
----------|------------------|-------------------|------------------|---------|
                                oooh
 
------------------|------------------------|-----------------0--|--0--------|
---------1------3-|-0h1----------1---------|-------1---------1--|--1--------|
-------0------0---|-----2-------2----------|-----0--------0--2--|--2--------|
-----2------0-----|---------2--------------|---2--------0----3--|--2--------|
-0h3------2-------|-------0----------0--2--|-3--------2------3--|--0---0-2--|
------------------|------------------------|-----------------1--|-----------|
Your head is        wont go                  the pipers           him
Dear lady can        blow                     your stairw     whispering wind
 
                                                          wierd time (3/4?)
-----3--------3---|--2---------0-2--|-3----0-2--3--0-2--|---3-3-2---------|
---5--------3---4-|--3-------3-3-3--|-3--3-3-3--3--3-3--|---3-3-3-3-------|
-5-----5--4-------|--2-------2-2-2--|-2--2-2-2--2--2-2--|---2-2-2-0-------|
------------------|-----------------|-0--0-0-0--0--0-0--|---0-0-0-2-------|
------------------|-----------------|-------------------|---------3-------|
------------------|-----------------|-------------------|-----------------|
 
---2-2-2---|---2--2-2--0-0-0-2-|-3-0-2--0-2-|-3-3-3-3-|---2--2-2-0-0-|-0-2-2-0|
-3-3-3-3-1-|-1-3--3-3--3-3-3-3-|-3-3-3--3-3-|-3-3-3-3-|-3-3--3-3-3-3-|-3-3-3-3|
-0-0-0-0-0-|-0-0--0-0------2-2-|-2-2-2--2-2-|-2-2-2-0-|-0-0--0-0-0-0-|-0-0-0-0|
---------2-|-----------0-0-0-0-|-0-0-0--0-0-|-0-0-0-2-|-2------------|--------|
---------3-|-------------------|------------|-------3-|--------------|--------|
-----------|-------------------|------------|---------|--------------|--------|
 
Tukaj se začne solo.                  Am     - x02210
Tukaj imate akorde                    Am7    - x02010
če zvenijo odprto                     Fmaj7  - xx3210
je to 12 strunska.
 
 Am                   Am7   Fmaj7
|----------5---------------|------------------8--8-|
|------------8-5-----------|-------------8b10------|
|---7b9----------7-5---7p5-|-----------------------|
|--------------------7-----|-7p5-------------------|
|--------------------------|----8------------------|
|--------------------------|-----------------------|
  Am             Am7         Fmaj7
|--8b10---8--5  -----8--10-|-8-----------------------5-------|
|---------------8b10-------|---10-8----8h10------------8-5---|
|--------------------------|--------10-----------7b9-------7-|
|--------------------------|---------------------------------|
|--------------------------|---------------------------------|
|--------------------------|---------------------------------|
  Am             Am7          Fmaj7
|----------------------------|----5------------------------|
|----------------------------|------8-5--------------------|
|-5---7p5------------5---5-5-|----------7-5--7p5-----------|
|---7-----7-5---5-7----7-----|-5------------7----7p5-7p5---|
|-------------7--------------|---------------------------8-|
|----------------------------|-----------------------------|
 
  Am             Am7
|---------------------------------------------|
|------------------------------------------13-|
|---------10-------------------12----12-14----|
|------10----12-10----10-12/14----14----------|
|-8/12-------------12-------------------------|
|---------------------------------------------|
 Fmaj7
|------------------------15b17-15-12----------------|
|--15b17-15-13--15-13-13-------------15b17-15-13----|
|------------------------------------------------14-|
|---------------------------------------------------|
|---------------------------------------------------|
|---------------------------------------------------|
 Am                                        Am7
|----------------------------------------------------------------------------|
|-13-15b17b15p13----13-15b17b15p13----13---15b17b15p13----13--15b17b15p13----|
|----------------14----------------14------------------14-----------------14-|
|----------------------------------------------------------------------------|
|----------------------------------------------------------------------------|
|----------------------------------------------------------------------------|
 Fmaj7
|----------------------------------------------------------------------------|
|-13-15b17b15p13----13--15b17b15p13----13--15b17b15p13----13--15b17b15p13----|
|----------------14-----------------14-----------------14-----------------14-|
|----------------------------------------------------------------------------|
|----------------------------------------------------------------------------|
|----------------------------------------------------------------------------|
 
 Am                       Am7            hold bend
|------------------------------------------15b17--|
|-13--15b17b15p13----13---15b17b15p13----13-------|
|-----------------14------------------14----------|
|-------------------------------------------------|
|-------------------------------------------------|
|-------------------------------------------------|
 Fmaj7
|-b17b15-12---12--------------------------------15--|
|-----------15---15--13----13-15-13---13--15b17-----|
|-----------------------14----------14--------------|
|---------------------------------------------------|
|---------------------------------------------------|
|---------------------------------------------------|
 
                  
                  ------8/7---8/5----
                   /
 Am          Am7 /---------\   Fmaj7
-----------------------------|-----------17----------------------------------|
-15b17b15p13----13/12--13/10-|--------20----20-20----------------------------|
-------------14--------------|--19b21-21----------19b21b19p17---19--17----19-|
-----------------------------|--------------------------------19-------19----|
-----------------------------|-----------------------------------------------|
-----------------------------|-----------------------------------------------|
 Am       Am7         Fmaj7                             Am    Am7
|--------------------|--------------------------------|--------------|
|--------------------|--------------------------------|--------------|
|-19b21--13/12 13/10-|--14b17--14b17-14--12--14--12-12b14------------|
|--------------------|--------------------------------|--------------|
|--------------------|--------------------------------|--------------|
|--------------------|--------------------------------|--------------|
 Fmaj7                               Am        Am7
|-----------------------------------|----------8/7--8/5--|
|-----------------------------------|--------------------|
|-10b14----10b12b10-9-7----7--------|-7-9-7--------------|
|-----------------------10----10----|-------10-7---------|
|-----------------------------------|--------------------|
|-----------------------------------|--------------------|
 
 Fmaj7
|----20-p17------20-p17------20-p17------20-p17------20-p17-----20b22-|
|-17--------17----------17----------17----------17----------17--------|
|---------------------------------------------------------------------|
|---------------------------------------------------------------------|
|---------------------------------------------------------------------|
|---------------------------------------------------------------------|
 
  Am           G                  F  G   Am           G                F  G
|-5------------3----------------|-1--3-|-5------------3-------------|--1--3-|
|-5------------3----------------|-1--3-|-5------------3-------------|--1--3-|
|-5------------4----------------|-2--4-|-5------------4-------------|--2--4-|
|-7------------5----------------|-3--5-|-7------------5-------------|--3--5-|
|-7------------5----------------|-3--5-|-7------------5-------------|--3--5-|
|-5------------3----------------|-1--4-|-5------------3-------------|--1--4-|
 And as we   wind on down the road       Our shadows taller than our  soul
 
  Am           G               F  G    Am           G
|-5------------3-------------|-1--3--|-5------------3----------|
|-5------------3-------------|-1--3--|-5------------3----------|
|-5------------4-------------|-2--4--|-5------------4----------|
|-7------------5-------------|-3--5--|-7------------5----------|
|-7------------5-------------|-3--5--|-7------------5----------|
|-5------------3-------------|-1--4--|-5------------3----------|
 there walks a lady we all know         who shines w' light and to
 
  F                       G    Am       G
--1-----------------------3--|-------------------------------|
--1-----------------------3--|-------------------------------|
--2-----------------------4--|-------------------------------|
--3-----------------------5--|-------------------------------|
--3----------3--5h7--5--3-5--|-------------------------------|
--1----1-3h5--------------3--|-5---5--------3--3-------------|
  show                          how everything still turns to
 
                      Am           G               F  G    Am     G
|---------------------5------------3-------------|-1--3--|-5------3----------|
|---------------------5------------3-------------|-1--3--|-5------3----------|
|---------------------5------------4-------------|-2--4--|-5------4----------|
|---------------------7------------5-------------|-3--5--|-7------5----------|
|-------3--5h7--5--3--7------------5-------------|-3--5--|-7------5----------|
|-1-3h5---------------5------------3-------------|-1--4--|-5-5----3--3-------|
 gold                and if you listen very hard the tune will   come to u at
 
 
   F                     G   Am    G     F
|--1------------------------|----------0-|---0-0-0-0-----|
|--1------------------------|----------1-|---1-1-1-1-----|
|--2------------------------|----------2-|---2-2-2-2-----|
|--3------------------------|----------3-|---3-3-3-3-----|
|--3----------3--5h7--5--3--|------------|---------------|
|--1----1-3h5---------------|-5-5--3-3-1-|-1----------5-5|
  last                        when   all __  yeah
 
 Am    G       Fmaj7          Am      Am7/G      Fmaj7
|-----------0-|-0-0-0-0------|--------8-10-----|-------------------------|
|-----------1-|-1-1-1-0------|-8/10--------10--|--8h10p10----------3-3---|
|-----------2-|-2-2-2-0------|-----------------|-----------------5b7-2---|
|-----------3-|-3-3-3-0------|-----------------|---------------------3---|
|-------------|--------------|-----------------|-------------------------|
|-5-5--3-3--1-|--------------|-----------------|-------------------------|
  to be a rock  roll__
 
 
Am       Am7/G            Fmaj7              Am        Am7/G
|----------------------0--|-------------------|-------------------------|
|----5-------8------10-3--|-----13-------12---|-----13------12------13__|
|--7b9----10b12--12b14-0--|--15b17----14b16---|--15b17---14b16---15b17__|
|----------------------0--|-------------------|-------------------------|
|-------------------------|-------------------|-------------------------|
|-------------------------|-------------------|-------------------------|
 Fmaj7
|-----------------------------------------|
|-13------12-------13------15-------------|
|_17---14b16----15b17---17b19-------------|
|-----------------------------------------|
|-----------------------------------------|
|-----------------------------------------|
 
 
slow
Am        Am7/G         Fmaj7
|----------------------|-0---------------------------------------------|
|----13------12-----15-|-1----13---------------------------------------|
|-15b17---14b16--17b19-|-2-15b17---------------------------------------|
|----------------------|-3---------------------------------------------|
|----------------------|-----------------------------------------------|
|----------------------|-----------------------------------------------|
                                  And shes buying a stairway to heaven
 
@SONG: Stairway To Heaven
 
 
There's a lady who's sure
All that glitters is gold
And she's buying a stairway to heaven.
When she gets there she knows
If the stores are all closed
With a word she can get what she came for.
Ooh, ooh, and she's buying a stairway to heaven.
 
There's a sign on the wall
But she wants to be sure
'Cause you know sometimes words have two meanings.
In a tree by the brook
There's a songbird who sings,
Sometimes all of our thoughts are misgiven.
Ooh, it makes me wonder,
Ooh, it makes me wonder.
 
There's a feeling I get
When I look to the west,
And my spirit is crying for leaving.
In my thoughts I have seen
Rings of smoke through the trees,
And the voices of those who standing looking.
Ooh, it makes me wonder,
Ooh, it really makes me wonder.
 
And it's whispered that soon
If we all call the tune
Then the piper will lead us to reason.
And a new day will dawn
For those who stand long
And the forests will echo with laughter.
 
If there's a bustle in your hedgerow
Don't be alarmed now,
It's just a spring clean for the May queen.
Yes, there are two paths you can go by
But in the long run
There's still time to change the road you're on.
And it makes me wonder.
 
Your head is humming and it won't go
In case you don't know,
The piper's calling you to join him,
Dear lady, can you hear the wind blow,
And did you know
Your stairway lies on the whispering wind.
 
And as we wind on down the road
Our shadows taller than our soul.
There walks a lady we all know
Who shines white light and wants to show
How ev'rything still turns to gold.
And if you listen very hard
The tune will come to you at last.
When all are one and one is all
To be a rock and not to roll.
 
And she's buying a stairway to heaven.






2.Eruption
Van Halen

(tukaj je pesem, ki je skoraj celoti solo, umestil sem jo na drugo mesto zaradi in ne na prvo predvsem
zaradi tega, ker se mi zdi Stairway to heaven boljši kot celota, eruption pa bolj kot solo)




E--------------------------------------------------------------------------------------|
B-------------------------------5-8p5p0-8p5p0-8p5p0-8p5p0-8p5p0-8p5p0-8p5p0------------|
G-----2----------5-7b(ps)r-p5-7--------------------------------------------------------|
D--/X-2------5-7-----------------------------------------------------------------------|
A--/X-0--3/7---------------------------------------------------------------------------|
E--------------------------------------------------------------------------------------|

E---------------------------------------------------------------------------|
B----5-8p5---5--------------------------------------------------------------|
G--7-------7---7-5--4h5h7p5p4---4h5h7p5p4---4h5h7p5p4---4h5h7p5p4-----------|
D-----------------------------7-----------7-----------7-----------7---------|
A---------------------------------------------------------------------------|
E---------------------------------------------------------------------------|

E------------------------------------------------------0--0-----------------|
B---------------------------------------------------2--3--3-----------------|
G--4------------------------------------------------2--0--2-----------------|
D----7-6-5-4----------------------------------------2--0--0-----------------|
A------------7-6-5-3~--/-\------0w-0w-0w-0w-0w-0w---0--0--------------------|
E----------------------------0w------------------------3--------------------|

E-------17-----17-17----17-17-----17-17---------17-20-21----20p17-----------|
G--/20-----20b------20b-------20b-------20b--20----------19-----------------|
B---------------------------------------------------------------------------|
D---------------------------------------------------------------------------|
A---------------------------------------------------------------------------|
E---------------------------------------------------------------------------|

E------17-----17--20brp17----------------------------------------------------------------------------|
B--19b----20b-------------20-17-20brp17----20brp17----20brp17----20brp17----20brp17----20brp17----17-|
G---------------------------------------19---------19---------19---------19---------19---------19----|
D----------------------------------------------------------------------------------------------------|
A----------------------------------------------------------------------------------------------------|
E----------------------------------------------------------------------------------------------------|


E--------------------17-20-------------17-20--17h20p17/14h15p14--------------------------------------|
G--------16-18-20-21----------17h20-----------------------------17p14----14--------------------------|
B--12/18-------------------17-------17--------------------------------17----18b-14-18b-18b-----------|
D----------------------------------------------------------------------------------------------------|
A----------------------------------------------------------------------------------------------------|
E-------------------------------------------------------------------------------------------0DB------|

Tukaj se igra s termolom. (zelo hitro)

E--12-12-12-12-12-12-12-16-16-16-16-16-16-19-19-19-19-19-19-17-17-17-17-14-14-14-14--|
B------------------------------------------------------------------------------------|
G------------------------------------------------------------------------------------|
D------------------------------------------------------------------------------------|
A------------------------------------------------------------------------------------|
E------------------------------------------------------------------------------------|


E--17-17-17-17-14-14-14-14-16-16-16-16-12-12-12-12-12-12-16-16-16-16-16-16-19-19-19--|
B------------------------------------------------------------------------------------|
G------------------------------------------------------------------------------------|
D------------------------------------------------------------------------------------|
A------------------------------------------------------------------------------------|
E------------------------------------------------------------------------------------|


E--19-19-19-17-17-17-17-14-14-14-14-17-17-17-17-14-14-14-14-16-16-16-16-12-12-12-12--|
B------------------------------------------------------------------------------------|
G------------------------------------------------------------------------------------|
D------------------------------------------------------------------------------------|
A------------------------------------------------------------------------------------|
E------------------------------------------------------------------------------------|

E--12-12-14-14-10-10-12-12-9-9-10-10/7-7-9-9/5-5-7-7/3-3-5-5/1-1-3-3-1-1-1-1-1-1-----|
B------------------------------------------------------------------------------------|
G------------------------------------------------------------------------------------|
D------------------------------------------------------------------------------------|
A------------------------------------------------------------------------------------|
E------------------------------------------------------------------------------------|

E--1h3p1p0---------------------------------------------------------------------------|
B-----------5p3p0--------------------------------------------------------------------|
G------------------5p2p0-------------------------------------------------------------|
D------------------------------------------------------------------------------------|
A------------------------------------------------------------------------------------|
E-------------------------0wwwwww----------------------------------------------------|

E--------------------------------------------------------------------------------------------------|
B--------------------------------------------6---5-------8p7h9p7h9p7h9p7h9p7h9p7h9p7h9p7h9p7~~-----|
G--------------------5p0-------------5p0-----------7p0-5-------------------------------------------|
D------5h7-7-7-7-7-7-----7-7-7-7-7-7-----7/8---8---------------------------------------------------|
A--/7----------------------------------------------------------------------------------------------|
E--------------------------------------------------------------------------------------------------|

E--------------------------------------------------------------------------------------------------|
B---------------------------------------------------8h10p8h10p8h10p8h10p8h10p8h10p8h10p8h10p8~~----|
G-------------------------------------------5p4----------------------------------------------------|
D--------------------5p0--------------5p0-------7p6------------------------------------------------|
A------5h7-7-7-7-7-7-----7-7-7-7-7-7------7--------------------------------------------------------|
E--3/7---------------------------------------------------------------------------------------------|

E--------------------------------------------------------------------------------------------------|
B----------------------------------------6p5-------8p0-7-9h11p9h11p9/7h9p7h9p7/5h7p5h7p5/4h6p4h6p4-|
G--------------------5p0-------------5p0-----7p0-5-------------------------------------------------|
D------5h7-7-7-7-7-7-----7-7-7-7-7-7---------------------------------------------------------------|
A--3/7---------------------------------------------------------------------------------------------|
E--------------------------------------------------------------------------------------------------|

Tapkanje.

   +	 +     +     +     +     +     +     +     +      +      +      +
E--------------------------------------------------------------------------------------|
B--9p2h5-9p2h5-9p2h5-9p2h5-9p2h5-9p2h5-9p2h5-9p2h5-10p2h5-10p2h5-10p2h5-10p2h5---------|
G--------------------------------------------------------------------------------------|
D--------------------------------------------------------------------------------------|
A--------------------------------------------------------------------------------------|
E--------------------------------------------------------------------------------------|
   +      +      +      +      +      +      +      +      +      +      +
E--------------------------------------------------------------------------------------|
B--10p2h5-10p2h5-10p2h5-10p2h5-10p4h7-10p4h7-10p4h7-10p4h7-10p4h7-10p4h7-10p4h7-10p4h7-|
G--------------------------------------------------------------------------------------|
D--------------------------------------------------------------------------------------|
A--------------------------------------------------------------------------------------|
E--------------------------------------------------------------------------------------|
   +      +      +      +      +      +      +      +      +      +      +
E--------------------------------------------------------------------------------------|
B--12p4h7-12p4h7-12p5h9-12p5h9-12p5h9-12p5h9-12p5h9-12p5h9-12p5h9-12p5h9-12p5h9--------|
G--------------------------------------------------------------------------------------|
D--------------------------------------------------------------------------------------|
A--------------------------------------------------------------------------------------|
E--------------------------------------------------------------------------------------|
   +      +      +      +      +      +      +      +      +      +      +
E--------------------------------------------------------------------------------------|
B--13p5h8-13p5h8-13p5h8-13p5h8-13p5h8-13p5h8-13p5h8-13p5h8-15p5h8-15p5h8-15p7h10-------|
G--------------------------------------------------------------------------------------|
D--------------------------------------------------------------------------------------|
A--------------------------------------------------------------------------------------|
E--------------------------------------------------------------------------------------|
   +       +       +       +       +       +       +       +       +
E--------------------------------------------------------------------------------------|
B--15p7h10-15p7h10-15p7h10-15p7h10-15p7h10-15p7h10-15p7h10-17p7h10-17p7h10-------------|
G--------------------------------------------------------------------------------------|
D--------------------------------------------------------------------------------------|
A--------------------------------------------------------------------------------------|
E--------------------------------------------------------------------------------------|
   +       +       +       +       +       +       +       +       +        +
E--------------------------------------------------------------------------------------|
B--17p9h12-17p9h12-17p9h12-17p9h12-17p9h12-17p9h12-17p9h12-17p9h12-17p12h15-17p12h15---|
G--------------------------------------------------------------------------------------|
D--------------------------------------------------------------------------------------|
A--------------------------------------------------------------------------------------|
E--------------------------------------------------------------------------------------|
   +        +        +       +       +        +        +        +        +
E----------------------------------------------------------------------------------------|
B--17p11h14-17p10h13-17p9h12-17p9h12-17p12h15-17p12h15-17p11h14-17p10h13-17p9h12-17p9h12-|
G----------------------------------------------------------------------------------------|
D----------------------------------------------------------------------------------------|
A----------------------------------------------------------------------------------------|
E----------------------------------------------------------------------------------------|
   +        +        +       +       +       +       +       +      +       +
E--------------------------------------------------------------------------------------|
B--15p10h13-15p10h13-15p9h12-15p9h12-15p8h11-15p8h11-15p7h10-15p710-13p8h11-13p8h11----|
G--------------------------------------------------------------------------------------|
D--------------------------------------------------------------------------------------|
A--------------------------------------------------------------------------------------|
E--------------------------------------------------------------------------------------|
   +       +       +      +      +      +      +      +      +      +      +
E--------------------------------------------------------------------------------------|
B--13p7h10-13p7h10-13p6h9-13p6h9-13p5h8-13p5h8-12p4h7-12p4h7-12p4h7-12p4h7-12p4h7------|
G--------------------------------------------------------------------------------------|
D--------------------------------------------------------------------------------------|
A--------------------------------------------------------------------------------------|
E--------------------------------------------------------------------------------------|
   +      +      +      +      +      +      +      +      +      +      +
E--------------------------------------------------------------------------------------|
B--12p4h7-12p4h7-12p4h7-12p5h8-12p5h8-12p5h8-12p5h8-12p5h8-12p5h8-12p5h8-12p5h8--------|
G--------------------------------------------------------------------------------------|
D--------------------------------------------------------------------------------------|
A--------------------------------------------------------------------------------------|
E--------------------------------------------------------------------------------------|
   +      +      +      +      +      +      +      +      +      +      +
E--------------------------------------------------------------------------------------|
B--12p4h7-12p4h7-12p4h7-12p4h7-12p4h7-12p4h7-12p4h7-12p4h7-12p5h8-12p4h7-12p5h8-12p4h7-|
G--------------------------------------------------------------------------------------|
D--------------------------------------------------------------------------------------|
A--------------------------------------------------------------------------------------|
E--------------------------------------------------------------------------------------|
    +      +      +      +      +      +      +      +      +
E-----------------------------------------------------------------------|
B---12p5h8-12p4h7-12p5h8-12p4h7-12p5h8-12p4h7-12p5h8-12p4h7-12p5--------|
G-----------------------------------------------------------------------|
D-----------------------------------------------------------------------|
A-----------------------------------------------------------------------|
E---------------------------------------------------------------/-\--0--|


3.Lynyrd Skynyrd 
Freebird

(uvod ne preseneča, zato pa tam v 4:50 min razpaljuje)




Intro Pt.1
E--3------0--0----1--0-----3--2--0--2-|
B--0------0--0----1--1-----3--3--3--3-|  x2
G--0------0--0----2--0-----2--2--2--2-|
D--0------2--2----3--2-----0--0--0--0-|
A--2------2--2----3--3----------------|
E--3--2---0--0----1-------------------|
   G      Em      F  C     D


Intro Pt.2  **Uporabi slide**
E-------------------------------|
B--3>8--7>8--7--8---------------|
G-------------------------------|
D-------------------------------|
A-------------------------------|
E-------------------------------|
    G         D/F#
E--------------------------------------------------------------------------------|
B--8>7>5>3>5>7--5>3------------6-6-6-5-------------------------------------------|
G--------------------4--4>5-------------5-----------4-5--------------------------|
D------------------------------------------5>0--2>5------------------------------|
A--------------------------------------------------------------------------------|
E--------------------------------------------------------------------------------|
   Em                            F          C


E------------------------------------------------------------------|
B--3>2>3------15>14---->15---7>8--7>8--7>8--8--8>7>5>0--5>3--------|
G-------------------14--------------------------------------4-4>5--|
D------------------------------------------------------------------|
A------------------------------------------------------------------|
E------------------------------------------------------------------|
   D                           G       D/F#       Em

E--------------------------------------------------------------------------------------|
B-6-6-6-5----------------3>2>3---3>2---3---5>8-----------------------------------------|
G---------5----------4-5-------------2-------------------------------------------------|
D-----------5>0--2>5-------------------------------------------------------------------|
A--------------------------------------------------------------------------------------|
E--------------------------------------------------------------------------------------|


E--------------------------------------------------------|
B-----------------------------3>5----5>3-----------------|
G----------------------------------------4-4>5-----------|
D--------------------------------------------------------|
A--------------------------------------------------------|
E--------------------------------------------------------|
                     D/F#    Em
    1.If I leave here  tom___orow
    2.Bye Bye its been sweet love

E------------------------------------------------------------------------------|
B-----------------------3>2>3>15----15>13-------14>15>8------------------------|
G----------------4--5---------------------13>14--------------------------------|
D-----------0>5----------------------------------------------------------------|
A------------------------------------------------------------------------------|
E------------------------------------------------------------------------------|
     F            C                   D
   1.Would you still remember me?
   2.And though this feeling I cant change

E-----------------------------------|
B-7>8-------------------------------|
G-----------------------------------|
D-----------------------------------|
A-----------------------------------|
E-----------------------------------|
    G     D/F#
  1.For I must be travelling on
  2.Please Dont take it so


E--------------------------------------------|
B--3>5-----5>3-------------------------------|
G--------------4-4>5>4>5>0-------------------|
D--------------------------------------------|
A--------------------------------------------|
E--------------------------------------------|
    Em
 1. Now
 2.badly

E----------------------------------------------------------|
B---------------------------3>2>3>2>3>15-15>14>15>14>15>8--|
G----------------------------------------------------------|
D--------------------4--5----------------------------------|
A---------------0>5----------------------------------------|
E----------------------------------------------------------|
    F           C              D
  1.Cause theres to many places i've got to see
  2.The Lord knows I'm to blame

E--------------------------------------------------------------------------|
B--7>8-------------------------3>5----5>3----------------------------------|
G----------------------------------------4-4>5>4>5>0-----------------------|
D--------------------------------------------------------------------------|
A--------------------------------------------------------------------------|
E--------------------------------------------------------------------------|
    G      D/F#    Em
 1.But if I stay here with you girl
 2.And if I stayed here with you now

E----------------------------------------------------------------------------------------|
B-------------------3>2>3>15---15>14----15>14-15>14-14>15>8------------------------------|
G-------------4-5--------------------14--------------------------------------------------|
D---------0>5----------------------------------------------------------------------------|
A----------------------------------------------------------------------------------------|
E----------------------------------------------------------------------------------------|
    C
1.Things just couldn't be the same
2.Things just couldn't be the same

E-----------------------------------|
B--7>8------------------------------|
G-----------------------------------|
D-----------------------------------|
A-----------------------------------|
E-----------------------------------|
    G              D/F#
  1.Cause i'm free as a bird
  2.Cause I'm free as a bird

E--------------------------------------------------------------------|
B---8>7>5>0----5>3-------------------------3>2>3----3>2>3>2>3>2>3>0--|
G-------------------4-4>5-------------4-5----------------------------|
D---------------------------------0>5--------------------------------|
A--------------------------------------------------------------------|
E--------------------------------------------------------------------|
   Em                      F              C         D
  1.now,                    and this bird you cannon change  oh
  2.now                     and this bird you'll never change oh

E-----------------------------------------------------------------------------|
B--3>6---6>5---------------------15>14----15>14----14>15----14>15----14>15----|
G------------5--------5----------------14-------14------14-------14-------14--|
D--------------5>0>5-----5>12-------------------------------------------------|
A-----------------------------------------------------------------------------|
E-----------------------------------------------------------------------------|
    F                  C          D
    and this bird you cannot change.


E---------------------------------|
B--14>15----14>15>8---------------|
G--------14-----------------------|
D---------------------------------|
A---------------------------------|
E---------------------------------|


E---------------------------------------------------------------------------------------|
B--5>6--6>5---------------------------------------6>5-------------6>15------------------|
G-----------5--------4-5>2----5>7---2>10--------------5--------5------------------------|
D-------------5>0>5-------------------------------------5>0>5---------------------------|
A---------------------------------------------------------------------------------------|
E---------------------------------------------------------------------------------------|
   F          C                D                   F          C
      And this bird you cannot change              Lord knows I can't change

E----------------------------------------|
B--6>5----------6>15>14>15>14>15>8-------|
G------5------5---------------------  <--|
D--------5>05----------------------------|  
A----------------------------------------|   
E----------------------------------------|  
    D                                  
                                                                      |
E--------------------------------------------------------            --------|
B----14>15-----14>15----14>15----14>15------12>15>8--------------------------|
G-14--------14-------14-------14-------14----------------            --------|
D--------------------------------------------------------  <-----------------|
A----------------------------------------------------------------------------|
E----------------------------------------------------------------------------|    x2


E----------------------------------------------------------------------|
B---5>6--6>5------------------3>2>3>2--3--2--3--2-3--2-3-2--3-2-3-2>8--|
G------------5--------4--5---------------------------------------------|
D--------------5>0>5---------------------------------------------------|
A----------------------------------------------------------------------|
E----------------------------------------------------------------------|
   F            C               D
     Lord  help me I can't    change_________________________________

E------------------------------------------------------------------------------|
B-3--3--3--3--3--3--3--3--5--5--5--5--5--5--5--5--5--5--5--5--5--5--5--5--5--5-|
G-3--3--3--3--3--3--3--3--5--5--5--5--5--5--5--5--5--5--5--5--5--5--5--5--5--5-|
D-3--3--3--3--3--3--3--3--5--5--5--5--5--5--5--5--5--5--5--5--5--5--5--5--5--5-|
A-1--1--1--1--1--1--1--1--3--3--3--3--3--3--3--3--3--3--3--3--3--3--3--3--3--3-|
E------------------------------------------------------------------------------|
  Bb                         C
  Lord_________       I     can't    change_____________          won't you


E--3--3--3--3--3--3--3--3---------------------------------------------------|
B--3--3--3--3--3--3--3--3--3--3--3--3--3--3--3--3---5--5--5--5--5--5--5--5--|
G--4--4--4--4--4--4--4--4--3--3--3--3--3--3--3--3---5--5--5--5--5--5--5--5--|
D--5--5--5--5--5--5--5--5--3--3--3--3--3--3--3--3---5--5--5--5--5--5--5--5--|
A--5--5--5--5--5--5--5--5--1--1--1--1--1--1--1--1---3--3--3--3--3--3--3--3--|
E--3--3--3--3--3--3--3--3---------------------------------------------------|
   G                        Bb                        C

Solo


------------------|------------------|--------------------------------|
------------------|------------------|--3------------3---3---3-3------|
------------------|------------------|--4------------3-x-3-x-3-3--x-x-|
------------------|------------------|--5--x-------x-3-x-3-x-3-3--x-x-|
------------------|------------------|--5--x---0-2-x-1-x-1-x-1-1--x-x-|
------------------|------------------|--3--x-3-----x------------------|

-----------------------------|--------------------------------|
--5--x-----------------------|--3------------3---3---3-3------|
--5--x-----------------------|--4------------3-x-3-x-3-3--x-x-|
--5--x-----5----5----5----5--|--5--x-------x-3-x-3-x-3-3--x-x-|
--3----5h7----7----7----7----|--5--x---0-2-x-1-x-1-x-1-1--x-x-|
-----------------------------|--3--x-3-----x------------------|

-----------------------------15----|------------------------------------------|
--5----5-5----5---5---5---------15-|--18b18b18b-18b-18-15-18-18r-15-18b-18-15-|
--5--x-5-5--x-5-x-5-x-5-x-15-------|------------------------------------------|
--5--x-5-5--x-5-x-5-x-5-x----------|------------------------------------------|
--3--x-3-3--x-3-x-3-x-3-x----------|------------------------------------------|
-----------------------------------|------------------------------------------|

---------18-----18-----18----18-------15----|
--18b18b----18b----18b----18b---18b------15-|
-----------------------------------15-------|
--------------------------------------------|
--------------------------------------------|
--------------------------------------------|

------------------------------------------|
--18b18b18b-18b-18-15-18-18r-15-18b-18-15-|
------------------------------------------|
------------------------------------------|
------------------------------------------|
------------------------------------------|

---------18-----18-----18----18----18----18-|
--18b18b----18b----18b----18b---18b---18b---|
--------------------------------------------|
--------------------------------------------|
--------------------------------------------|
--------------------------------------------|

-----18----18----18----18----18----18----18----18-|
--18~---18~---18~---18~---18~---18~---18~---18~---|
--------------------------------------------------|
--------------------------------------------------|
--------------------------------------------------|
--------------------------------------------------|

-----18----18----18----18----18----18-----------|
--18~---18~---18~---18~---18~---18~---18~-18-15-|
------------------------------------------------|
------------------------------------------------|
------------------------------------------------|
------------------------------------------------|

--------------------------------------------------------------------------------|
--18-15-18-18-15-18-18b15-18-18-15-18-18b15-18-18-15-18-18b15-18-18-15-18-18b15-|
--------------------------------------------------------------------------------|
--------------------------------------------------------------------------------|
--------------------------------------------------------------------------------|
--------------------------------------------------------------------------------|

------------------------------------------------------------------------------|
--15-18-18-15-18-18-15-18-18b15-18-18b15-18-18r15-18-18r15-18-18r15-18-18r15--|
------------------------------------------------------------------------------|
------------------------------------------------------------------------------|
------------------------------------------------------------------------------|
------------------------------------------------------------------------------|

--13b-13b-13b-------------------------------------------------------------|
--------------18p15----15-18p15----15-18p15----15-18p15----15-18p15----15-|
--------------------17----------17----------17----------17----------17----|
--------------------------------------------------------------------------|
--------------------------------------------------------------------------|
--------------------------------------------------------------------------|

---------------------------------------------------------------------------------|
--18p15----15-18p15----15-18p15----15-18p15----15-18p15----15-18p15----15--------|
--------17----------17----------17----------17----------17----------17----17--15-|
---------------------------------------------------------------------------------|
---------------------------------------------------------------------------------|
---------------------------------------------------------------------------------|

--------------------------------------------------------------------------|
-----------------------------------------------------------------18----18-|
-----15~---------15~---15-17p15-17p15----15-17p15----15-17p15-17b---17b---|
--17----17p15-17----17----------------17----------17----------------------|
--------------------------------------------------------------------------|
--------------------------------------------------------------------------|

--------------------------------------------------|
-----18----18----18----18----18----18----18----18-|
--17b---17b---17b---17b---17b---17b---17r---17r---|
--------------------------------------------------|
--------------------------------------------------|
--------------------------------------------------|

-----------------------------------------------------------------|
-----18----18----18----18----18----18----18----18----18----18----|
--17r---17r---17r---17r---17r---17r---17r---17r---17r---17r---17r|
-----------------------------------------------------------------|
-----------------------------------------------------------------|
-----------------------------------------------------------------|

-----------------------------------------------------|
--18-18-18-18-18-18-18-18-18-18-18-18-18-18----------|
--17-17b17b17-17b17b17-17b17b17-17b17b17-17b---------|
--------------------------------------------17p15----|
--------------------------------------------------17-|
-----------------------------------------------------|

-----------------------------------------------------------------|
-----------------------------------------------------------------|
--15----------15----------15----------15----------15----------15-|
-----17p15-------17p15-------17p15-------17p15-------17p15-------|
-----------17----------17----------17----------17----------17----|
-----------------------------------------------------------------|

----------------------------------------------------------------------------|
----------------------------------------------------------------------------|
------------------------------------15--------------------------------------|
--17--17----15-17p15-17p15-17p15-------17--17----15-17p15-17p15-17p15----15-|
---------17----------------------17-----------17----------------------17----|
----------------------------------------------------------------------------|

----------------------------------------------------------------------------|
----------------------------------------------------------------------------|
----------------------------------------------------------------------------|
--17--17----15-17p15-17p15-17p15----15-17--17----15-17p15-17p15-17p15----15-|
---------17----------------------17-----------17----------------------17----|
----------------------------------------------------------------------------|

---------------------------------------------------|
---------------------------------------------------|
------------15-----------15-----------15--------17b|
--17--15-------17--15-------17--15-------17--15----|
---------17-----------17-----------17--------------|
---------------------------------------------------|

--------------------------------------------------------------------------------|
--------------------------------------------------------------------------------|
--17-15-------17b17-15-------17b17-15-------17b17-15-------17b17-15-------17b17-|
--------17-15----------17-15----------17-15----------17-15----------17-15-------|
--------------------------------------------------------------------------------|
--------------------------------------------------------------------------------|

---------------------------------------------------------------|
---------------------------------------------------------------|
--------17b17-15-------17b17-15-------17b17b-17b17-17-15-15-15-|
--17-15----------17-15----------17-15--------------------------|
---------------------------------------------------------------|
---------------------------------------------------------------|

--------------------------------------------|
--------------------------------------------|
--------------------------------------------|
--17----17----15b-15----15-15r----15b-15----|
-----------17--------17--------17--------17-|
-----19-------------------------------------|

---------------------------------------------|
---------------------------------------------|
---------15-----15-----15----15--------------|
--15b15b----15b----15b----15b---15b----17----|
------------------------------------------17-|
------------------------------------18-------|

------------------------------------------|
------------------------------------------|
------------------------------------------|
--15-15b15b-15b-15----15-15r----15b-15----|
-------------------17--------17--------17-|
------------------------------------------|

--------------------------------------|
--------------------------------------|
---------15-----15--------------------|
--15b15b----15b----15b-15b-15b-15b-15-|
--------------------------------------|
--------------------------------------|

------------------------------------------|
------------------------------------------|
-------------------15--------15--------15-|
--17--17-15-17--17-15-17--17-15-17--17-15-|
------------------------------------------|
------------------------------------------|

----------------------------------------|
----------------------------------------|
---------15--------15-------------------|
--17--17-15-17--17-15-17-17b-17b-17b-15-|
----------------------------------------|
----------------------------------------|

--------------------------------------------------------|
--------------------------------------------------------|
---------15--------15-16-17-17r15--------15-16-17-17r15-|
--17--17-15-17--17----------------17--17----------------|
--------------------------------------------------------|
--------------------------------------------------------|

----------------------------------------|
----------------------------------------|
----------------------------------------|
--17--17-15-17--17-15-17-17b-17b-17b-14-|
----------------------------------------|
----------------------------------------|

-------------------------------------------|
-------------------------------------------|
-----------------------------------15b-15--|
--17-----17--17-19p17----17-----17---------|
------19--------------19-----19------------|
-------------------------------------------|

---------------------------------------3-6---|
-------------------------------------6-----8-|
-----15--------------------------------------|
--17----17-15-17-15b-15b-15b-15b-15b---------|
---------------------------------------------|
---------------------------------------------|

--5p3---3-6p3-5p3---3-6p3-5p3---3-6p3-5p3---3-6p3-5p3---3-6p3-5p3-|
------6-----------6-----------6-----------6-----------6-----------|
------------------------------------------------------------------|
------------------------------------------------------------------|
------------------------------------------------------------------|
------------------------------------------------------------------|

----3-6p3-5p3---3-6p3-5p3---3-6p3-5p3---3-6p3-5p3/----15-|
--6-----------6-----------6-----------6------------------|
---------------------------------------------------------|
---------------------------------------------------------|
---------------------------------------------------------|
---------------------------------------------------------|

-----------15----------15----------15----------15----------15----------15-------|
--18p15-------18p15-------18p15-------18p15-------18p15-------18p15-------18p15-|
--------17----------17----------17----------17----------17----------17----------|
--------------------------------------------------------------------------------|
--------------------------------------------------------------------------------|
--------------------------------------------------------------------------------|

-----------15----------15----------15----------15----------15----------15-------|
--18p15-------18p15-------18p15-------18p15-------18p15-------18p15-------18p15-|
--------17----------17----------17----------17----------17----------17----------|
--------------------------------------------------------------------------------|
--------------------------------------------------------------------------------|
--------------------------------------------------------------------------------|

-----------15----------15----------15----------15----------15----------15-------|
--18p15-------18p15-------18p15-------18p15-------18p15-------18p15-------18p15-|
--------17----------17----------17----------17----------17----------17----------|
--------------------------------------------------------------------------------|
--------------------------------------------------------------------------------|
--------------------------------------------------------------------------------|

-----------15----------15----------15----------15----------15----------15-------|
--18p15-------18p15-------18p15-------18p15-------18p15-------18p15-------18p15-|
--------17----------17----------17----------17----------17----------17----------|
--------------------------------------------------------------------------------|
--------------------------------------------------------------------------------|
--------------------------------------------------------------------------------|

-----18p15----18p15----18p15----18p15----18p15----18p15----18p15----18p15----18--|p
--15-------15-------15-------15-------15-------15-------15-------15-------15-----|
---------------------------------------------------------------------------------|
---------------------------------------------------------------------------------|
---------------------------------------------------------------------------------|
---------------------------------------------------------------------------------|

---------------------------------------------------------------------------------|
-----18p15----18p15----18p15----18p15----18p15----18p15----18p15----18p15----18--|p
--15-------15-------15-------15-------15-------15-------15-------15-------15-----|
---------------------------------------------------------------------------------|
---------------------------------------------------------------------------------|
---------------------------------------------------------------------------------|

--13b--13b--13b13b13r-13-13-13----------|
-------------------------------15-15-15-|
----------------------------------------|
----------------------------------------|
----------------------------------------|
----------------------------------------|

----------------------------------------|
--13b--13b--13b13b13r-13-13-13-11-11-11-|
----------------------------------------|
----------------------------------------|
----------------------------------------|
----------------------------------------|

--------6---6---6-----6-------6---6---6-----6-|
--8--8----8---8-8-6-----8--8----8---8-8-6-----|
--------------------7---------------------7---|
----------------------------------------------|
----------------------------------------------|
----------------------------------------------|

-----6-----6----6-----6----6-----6-------|----------------------------------|
--8--8-6-----8--8-6-----8--8-6-----8-----|--8----8--8-10---8----8--8-10p8---|
---------7----------7----------7-------9-|-----9---------9----9-----------9-|
-----------------------------------------|----------------------------------|
-----------------------------------------|----------------------------------|
-----------------------------------------|----------------------------------|

-----------------------------------|---------------------------------|
--8----8----8-10b-10b10b11b10b-8---|--8--10b-10b-10b---10b-10b-10b10b|
-----9----9----------------------9-|---------------------------------|
-----------------------------------|---------------------------------|
-----------


Pesmarice - 5 najboljših rock solotov - indeksirano na Trzalica.com.
Uporabniki, ki so igrali Pesmarice - 5 najboljših rock solotov, so igrali tudi sledeče pesmi od Pesmarice:
Pesmarica - NA OBALI S KITARO V ROKI, Pesmarica J.S. Bacha

Namig:

Iskalnik akordov in tablatur www.Akordi.eu trenutno indeksira približno 7'800 pesmi izpod prstov približno 500 različnih izvajalcev. In nove pesmi se pridno nabirajo v našem arhivu, tako da vam jih zlepa ne bo zmanjkalo.

Pokažite svoj talent!

Tu lahko objavite vaš video ali audio posnetek! Hočem vedeti več ...
Kje lahko najdemo vaš nastop? Hočem vedeti več ...
Vaš komentar:
Prosimo, prijavite se in objavite vaš nastop.