Izvajalci:   A B C Č D E F G H I J K L M N O P Q R S Š T U V W X Y Z Ž
Trenutna ocena: 0
Oceni akorde:
1  2  3  4  5
Transponiraj pesem:
#----------------------------------PLEASE NOTE--------------------------------#
#This file is the author's own work and represents their interpretation of the#
#song. You may only use this file for private study, scholarship, or research.#
#-----------------------------------------------------------------------------#
#-- File created with Instab - http://www.pconline.com/~smcarey/instab.html --#
#-----------------------------------------------------------------------------#

Author/Artist: Šank Rock
Title: Ker te ljubim
Transcribed by: žiga-FGL
Email: cerpius@yahoo.com

Jočem na glaaaaas. :) Ker Ahil še vedno ni vlovil želve, Zenon pa se temu
navihano smeji...


-----2----------2----------2----------2---------------------------------------
---3---3------3---3------3---3------3---3-------------------------------------
-4----------3----------2----------1-------------------------------------------
------------------------------------------------------------------------------
------------------------------------------------------------------------------
------------------------------------------------------------------------------

To je uvodni del, igra se tudi med kitico, lahko iz tega naredite akorde za
spremjavo, recimo: (1)xx4432, (2)xx4332, (3)xx0232, (4)xx0132. Torej igramo te 
akorde ali pa uvodni del. Številke v oklepajih pred akordi so orientacija, da 
veste kam v pesem spada kateri akord:

 (1)      (2)        (3)     (4)  
Ni smeha, le žalost noč za nočjo,
G        A                h
odpiram oči, z mano tema spi.
 (1)     (2)    (3)      (4)
Ogrnjen v tišino se  ponorim,
G            A          h
z jutrom po tebi hrepenim

e                    A
Življenje, trenutek in sanje najine, 
G                     D   A
ne morem, več sam, skozi noč.

D         A             e
Jočem na glas ali me slišiš, 
D         A               G
kličem te zdaj, o daj oglasi se.
D          A           e
Jočem na glas, ker te ljubim.
G        A             h  e
Nikoli vedela tega ne boš.
G        A             h  
Nikoli vedela tega ne boš.
                                

To sta primera vložkov oz olepšav med refrenom:

	--------------------|-|-----------------------------------------------
	-------------3------|-|-------------------------3---------------------
	-------------2------|-|---------------0-0-------2---------------------
	-------------0------|-|-------------------4-2-0-0---------------------
	---------0-2--------|-|-----------------------------------------------
	--0-2-3-------------|-|-------------------------------------------------------
 ...slišiš            Kličem...  ...oglasi se            Jočem na glas...


Solo in tisto soliranje na koncu je v h-molu v bistvu vse...
Če kaj ni jasno me vprašajte preko maila recimo...

lp

















Utram bibis? Aquam an undam?


Šank Rock - Ker te ljubim - indeksirano na Trzalica.com.
Uporabniki, ki so igrali Šank Rock - Ker te ljubim, so igrali tudi sledeče pesmi od Šank Rock:
Metulj v1, Pravljica o mavričnih ljudeh v2, Pravljica o mavričnih ljudeh v1,
Delam kar paše mi, Metulj v2, Puščava sna

Namig:

Po registraciji (ki vam bo vzela le 10 sekund, se spomnite?) boste lahk uporabljai vaš kotiček - čisto vaš delček portala www.Akordi.eu z vašimi pesmaricami itd.

Pokažite svoj talent!

Tu lahko objavite vaš video ali audio posnetek! Hočem vedeti več ...
Kje lahko najdemo vaš nastop? Hočem vedeti več ...
Vaš komentar:
Prosimo, prijavite se in objavite vaš nastop.