Izvajalci:   A B C Č D E F G H I J K L M N O P Q R S Š T U V W X Y Z Ž
Trenutna ocena: 0
Oceni akorde:
1  2  3  4  5
Transponiraj pesem:
_______________________________________
	|					|
	| IZVAJALEC: ........... Gušti & Polona |
	| PESEM: ........................ D dan |
	| ALBUM: ........................... GP |
	|_______________________________________|
	|					|
	|   Besedilo z akordi in tabulatura	|
	|   Transkripcija: Aleš Godec (AliAs)	|
	|   email: alias.ag@email.si		|
	|   Domača stran: www.trzalica.com	|
	|_______________________________________|


INTRO:
   Dm               C
e|---------------------5-----5-------|
B|-6-----6-----5-------6-----6-------|
G|-7--7--7--7--5----5-----5-----5----|  --2x
D|----7-----7-------5-----5-----5----|
A|-----------------------------------|
E|-----------------------------------|


VERZ:

        Dm            Gm    A#
Vem od nekdaj svojo zgodbo,
        Dm           Gm    F
vem od nekdaj kaj živim,
      Dm           Gm    A#
in usmerjam svoje sanje,
        Dm          Gm
vse trenutke kje živim,

   Dm               C
e|---------------------5-----5-------|
B|-6-----6-----5-------6-----6-------|
G|-7--7--7--7--5----5-----5-----5----|  --2x
D|----7-----7-------5-----5-----5----|
A|-----------------------------------|
E|-----------------------------------|

          Dm         Gm    A#
Tam kjer kopno pije morje,
         Dm         Gm    F
spet bi menjala okolje,
        Dm         Gm    A#
kaj mi piše leva dlan,
           Dm            Gm
kaj sploh hočem in kaj znam,

 A#    C
Mečem misli in ne ustavljam,
 A#   C
sebi dajem vse,
  A#     C
grizem, trgam se usajam,
 A#       F    C
milo gledaaam


REFREN:

  Dm
Vse kar znam
        A#         F
le da pride moj d dan
Dm
vse kar znam
        A#         F
le da pride moj d dan
Dm
vse kar znam
        A#         F
le da pride moj d dan
Dm
vse kar znam
        C
le da pride

   Dm               C
e|---------------------5-----5-------|
B|-6-----6-----5-------6-----6-------|
G|-7--7--7--7--5----5-----5-----5----|  --2x
D|----7-----7-------5-----5-----5----|
A|-----------------------------------|
E|-----------------------------------|


VERZ:

      Dm        Gm    A#
Tiho pelje me usoda
         Dm         Gm    F
skrivam perje od laboda
           Dm      Gm    A#
v stilu skrite elegance
       Dm       Gm
ne prenesem arogance

 A#    C
Mečem misli in ne ustavljam,
 A#   C
sebi dajem vse,
  A#     C
grizem, trgam se usajam,
 A#       F    C
milo gledaaam


REFREN:

  Dm
Vse kar znam
        A#         F
le da pride moj d dan
Dm
vse kar znam
        A#         F
le da pride moj d dan
Dm
vse kar znam
        A#         F
le da pride moj d dan
Dm
vse kar znam
         C
naj le pride
naj le pride


BRIDGE:

	Gm   F   C

Po zvončkih (ko se začnejo bobni)

   Gm                      A#                      F
e|-15----------15----------18----------18----------12----------12----------12----------------------|
B|-----15----------15----------18----------18----------13----------13----------13------13--15--13--|
G|---------15----------15----------19----------19----------14----------14----------12--------------|
D|-------------------------------------------------------------------------------------------------|
A|-------------------------------------------------------------------------------------------------|
E|-------------------------------------------------------------------------------------------------|

   Gm                      A#                      F
e|-15----------15----------18----------20----------13----------15----------|
B|-----15----------15----------18----------18----------13----------13------|
G|---------15----------15----------19----------19----------14----------14--|
D|-------------------------------------------------------------------------|
A|-------------------------------------------------------------------------|
E|-------------------------------------------------------------------------|


REFREN:

  Dm
Vse kar znam
        A#         F
le da pride moj d dan
Dm
vse kar znam
        A#         F
le da pride moj d dan
Dm
vse kar znam
        A#         F
le da pride moj d dan
Dm
vse kar znam
         C
naj le pride
naj le pride

   Dm               C
e|---------------------5-----5-------|
B|-6-----6-----5-------6-----6-------|
G|-7--7--7--7--5----5-----5-----5----|  --4x
D|----7-----7-------5-----5-----5----|
A|-----------------------------------|
E|-----------------------------------|


Gušti & Polona - D dan - indeksirano na Trzalica.com.
Uporabniki, ki so igrali Gušti & Polona - D dan, so igrali tudi sledeče pesmi od Gušti & Polona:
Makova polja, Vedno zame, Mine leto v1, Moje sanje, Sama s sabo, Odvisen

Namig:

Po registraciji (ki vam bo vzela le 10 sekund, se spomnite?) boste lahk uporabljai vaš kotiček - čisto vaš delček portala www.Akordi.eu z vašimi pesmaricami itd.

Pokažite svoj talent!

Tu lahko objavite vaš video ali audio posnetek! Hočem vedeti več ...
Kje lahko najdemo vaš nastop? Hočem vedeti več ...
Vaš komentar:
Prosimo, prijavite se in objavite vaš nastop.