Izvajalci:   A B C Č D E F G H I J K L M N O P Q R S Š T U V W X Y Z Ž
Trenutna ocena: 0
Oceni akorde:
1  2  3  4  5
Transponiraj pesem:
=========================

D A   S A M   P E K A R
B i j e l o   D u g m e

=========================


[Uvod]:

Da sam pekar mala moja ne znam bi l' me htjela,
kad bi noću bila sama zemičke bi jela...


[A Riff]:

e|---------------------|-------------------------|------------------------|
B|---------------------|-------------------------|------------------------|
G|-------2--------0----|--2--x--2--x--2--0-------|-------2--x--2--0-------|
D|-------2--------0----|--2--x--2--x--2--0----0--|--2----2--x--2--0-------|
A|--0------------------|-------------------------|--0------------------0--|
E|---------------------|-------------------------|------------------------|
                                                                        
e|------------------------|--------------------|-------------------------|
B|------------------------|--------------------|-------------------------|
G|--2--x--2--x--2--0------|------2--------0----|--2--x--2--x--2--0-------|
D|--2--x--2--x--2--0------|------2--------0----|--2--x--2--x--2--0----0--|
A|------------------------|--------------------|-------------------------|
E|------------------------|--------------------|-------------------------|


A Riff
Imam dragu al je zlo, al je zlo,
A Riff
nismo nikad zajedno, zajedno, zajedno.
A Riff
Kad sam sa njom čitav dan, čitav dan,
A Riff
ona hoće dan i noć, dan i noć.
D             A
Za jedan dan, za jednu noć,
         D   C  D              A
za jednu noć il dvije dala bi sve.


A Riff
Imam dragu nisam kriv, nisam kriv,
A Riff
svak' je na svoj način živ, način živ, način živ.
A Riff
Kad je ljubim čitav dan, čitav dan
A Riff
ona hoće dan i noć, dan i noć, dan i noć.
         D             A
Za jedan dan, za jednu noć,
         D   C  D  C A (D C# D D# E)           
Za jednu noć il dvije... 


[Refren]:

G                            C           B A G
Da sam, da sam, da sam pekar koji noću radi,
G                           F
da sam, da sam, da sam pekar, šta bi tad? Hej!
G                          C           B  A G
Da sam, da sam, da sam pekar da li bi me htjela?
E                               (D C# D# E)
Janje moje bijelo da li bi mi i tad rekla?


Bijelo Dugme - Da sam pekar v1 - indeksirano na Trzalica.com.
Uporabniki, ki so igrali Bijelo Dugme - Da sam pekar v1, so igrali tudi sledeče pesmi od Bijelo Dugme:
Đurđev dan je, a ja nisam s onom koju volim, Ne spavaj mala moja, muzika dok svira v2,
Ružica si bila - Original akordi.txt, Ne spavaj mala moja, muzika dok svira v1, Lažeš, Lipe cvatu v1
Ogromno število pesmi z akordi in tablaturami izvajalca Bijelo Dugme najdete tudi na spletni strani YourChords.com pod Bijelo Dugme Chords and Tabs.

Namig:

Po registraciji (ki vam bo vzela le 10 sekund, se spomnite?) boste lahk uporabljai vaš kotiček - čisto vaš delček portala www.Akordi.eu z vašimi pesmaricami itd.

Pokažite svoj talent!

Tu lahko objavite vaš video ali audio posnetek! Hočem vedeti več ...
Kje lahko najdemo vaš nastop? Hočem vedeti več ...
Vaš komentar:
Prosimo, prijavite se in objavite vaš nastop.